  0
SECTION
  2
HEADER
  9
$ACADVER
  1
AC1009
  9
$INSBASE
 10
0
 20
0
 30
0
  9
$EXTMIN
 10
0
 20
0
  9
$EXTMAX
 10
4200
 20
2970
  9
$LIMMIN
 10
0
 20
0
  9
$LIMMAX
 10
4200
 20
2970
  9
$LTSCALE
 40
10
  0
ENDSEC
  0
SECTION
  2
TABLES
  0
TABLE
  2
LTYPE
 70
     9
  0
LTYPE
  2
CONTINUOUS
 70
    64
  3
Ä└É³
 72
    65
 73
     0
 40
0.0
  0
LTYPE
  2
DASHED1
 70
    64
  3
--  --  --  --  --  --  --  --  
 72
    65
 73
     2
 40
2.5
 49
1.25
 49
-1.25
  0
LTYPE
  2
DASHED2
 70
    64
  3
----    ----    ----    ----    
 72
    65
 73
     2
 40
5.0
 49
2.5
 49
-2.5
  0
LTYPE
  2
DASHED3
 70
    64
  3
------  ------  ------  ------  
 72
    65
 73
     2
 40
5.0
 49
3.75
 49
-1.25
  0
LTYPE
  2
CENTER1
 70
    64
  3
----- - ----- - ----- - ----- - 
 72
    65
 73
     4
 40
10.0
 49
6.25
 49
-1.25
 49
1.25
 49
-1.25
  0
LTYPE
  2
CENTER2
 70
    64
  3
----------  --  ----------  --  
 72
    65
 73
     4
 40
20.0
 49
12.5
 49
-2.5
 49
2.5
 49
-2.5
  0
LTYPE
  2
PHANTOM1
 70
    64
  3
--- - - --- - - --- - - --- - - 
 72
    65
 73
     6
 40
10.0
 49
3.25
 49
-1.25
 49
1.25
 49
-1.25
 49
1.25
 49
-1.25
  0
LTYPE
  2
PHANTOM2
 70
    64
  3
--------  -  -  --------  -  -  
 72
    65
 73
     6
 40
20.0
 49
10.0
 49
-2.5
 49
1.25
 49
-2.5
 49
1.25
 49
-2.5
  0
LTYPE
  2
DOT
 70
    64
  3
-   -   -   -   -   -   -   -   
 72
    65
 73
     2
 40
2.5
 49
0.625
 49
-1.875
  0
LTYPE
  2
DUMMY
 70
    64
  3
â_â~ü[
 72
    65
 73
     0
 40
0.0
  0
LTYPE
  2
RAND1
 70
    64
  3
âëâôâ_âÇÉ³1
 72
    65
 73
     4
 40
10.0
 49
1.0
 49
-2.0
 49
3.0
 49
-4.0
  0
LTYPE
  2
RAND2
 70
    64
  3
âëâôâ_âÇÉ³2
 72
    65
 73
     4
 40
14.0
 49
2.0
 49
-3.0
 49
4.0
 49
-5.0
  0
LTYPE
  2
RAND3
 70
    64
  3
âëâôâ_âÇÉ³3
 72
    65
 73
     4
 40
18.0
 49
3.0
 49
-4.0
 49
5.0
 49
-6.0
  0
LTYPE
  2
RAND4
 70
    64
  3
âëâôâ_âÇÉ³4
 72
    65
 73
     4
 40
22.0
 49
4.0
 49
-5.0
 49
6.0
 49
-7.0
  0
LTYPE
  2
RAND5
 70
    64
  3
âëâôâ_âÇÉ³5
 72
    65
 73
     4
 40
26.0
 49
5.0
 49
-6.0
 49
7.0
 49
-8.0
  0
LTYPE
  2
LONG1
 70
    64
  3
----------  --  ----------  --  
 72
    65
 73
     4
 40
40.0
 49
32.5
 49
-2.5
 49
2.5
 49
-2.5
  0
LTYPE
  2
LONG2
 70
    64
  3
--------  -  -  --------  -  -  
 72
    65
 73
     6
 40
40.0
 49
30.0
 49
-2.5
 49
1.25
 49
-2.5
 49
1.25
 49
-2.5
  0
LTYPE
  2
LONG3
 70
    64
  3
+++++++++++++++..+++++++++++++++
 72
    65
 73
     2
 40
40.0
 49
37.5
 49
-2.5
  0
LTYPE
  2
LONG4
 70
    64
  3
+++++++++++++++..+++++++++++++++
 72
    65
 73
     2
 40
80.0
 49
75.0
 49
-5.0
  0
LTYPE
  2
LONG5
 70
    64
  3
----------  --  ----------  --  
 72
    65
 73
     4
 40
60.0
 49
37.5
 49
-7.5
 49
7.5
 49
-7.5
  0
LTYPE
  2
dashed
 70
   64
  3
-------   -------------   ------
 72
   65
 73
    2
 40
7.5
 49
6
 49
-1.5
  0
LTYPE
  2
dashed_spaced
 70
   64
  3
----        --------        ----
 72
   65
 73
    2
 40
12
 49
6
 49
-6
  0
LTYPE
  2
long_dashed_dotted
 70
   64
  3
------------- --- --------------
 72
   65
 73
    4
 40
15.25
 49
12
 49
-1.5
 49
0.25
 49
-1.5
  0
LTYPE
  2
long_dashed_double-dotted
 70
   64
  3
----------- --- --- ------------
 72
   65
 73
    6
 40
17
 49
12
 49
-1.5
 49
0.25
 49
-1.5
 49
0.25
 49
-1.5
  0
LTYPE
  2
long_dashed_triplicate-dotted
 70
   64
  3
--------- --- --- --- ----------
 72
   65
 73
    8
 40
18.75
 49
12
 49
-1.5
 49
0.25
 49
-1.5
 49
0.25
 49
-1.5
 49
0.25
 49
-1.5
  0
LTYPE
  2
dotted
 70
   64
  3
   -       -       -       -    
 72
   65
 73
    2
 40
1.75
 49
0.25
 49
-1.5
  0
LTYPE
  2
chain
 70
   64
  3
-------------- -- --------------
 72
   65
 73
    4
 40
18.5
 49
12
 49
-1.5
 49
3.5
 49
-1.5
  0
LTYPE
  2
chain_double_dash
 70
   64
  3
------------ -- -- -------------
 72
   65
 73
    6
 40
23.5
 49
12
 49
-1.5
 49
3.5
 49
-1.5
 49
3.5
 49
-1.5
  0
LTYPE
  2
dashed_dotted
 70
   64
  3
-----------     -     ----------
 72
   65
 73
    4
 40
9.25
 49
6
 49
-1.5
 49
0.25
 49
-1.5
  0
LTYPE
  2
double-dashed_dotted
 70
   64
  3
------   -----------   -   -----
 72
   65
 73
    6
 40
16.75
 49
6
 49
-1.5
 49
6
 49
-1.5
 49
0.25
 49
-1.5
  0
LTYPE
  2
dashed_double-dotted
 70
   64
  3
---------    -    -    ---------
 72
   65
 73
    6
 40
11
 49
6
 49
-1.5
 49
0.25
 49
-1.5
 49
0.25
 49
-1.5
  0
LTYPE
  2
double-dashed_double-dotted
 70
   64
  3
-----   ---------   -   -   ----
 72
   65
 73
    8
 40
18.5
 49
6
 49
-1.5
 49
6
 49
-1.5
 49
0.25
 49
-1.5
 49
0.25
 49
-1.5
  0
LTYPE
  2
dashed_triplicate-dotted
 70
   64
  3
-------    -    -    -    ------
 72
   65
 73
    8
 40
12.75
 49
6
 49
-1.5
 49
0.25
 49
-1.5
 49
0.25
 49
-1.5
 49
0.25
 49
-1.5
  0
LTYPE
  2
double-dashed_triplicate-dotted
 70
   64
  3
-----  ---------  -  -  -  -----
 72
   65
 73
   10
 40
20.25
 49
6
 49
-1.5
 49
6
 49
-1.5
 49
0.25
 49
-1.5
 49
0.25
 49
-1.5
 49
0.25
 49
-1.5
  0
LTYPE
  2
undefined
 70
   64
  3
--------------------------------
 72
   65
 73
    0
 40
0
  0
ENDTAB
  0
TABLE
  2
STYLE
  5
3
100
AcDbSymbolTable
 70
     1
  0
STYLE
  5
10
100
AcDbSymbolTableRecord
100
AcDbTextStyleTableRecord
  2
STANDARD
 70
     0
 40
0.0
 41
1.0
 50
0.0
 71
     0
 42
0.2
  3
txt
  4
bigfont.shx
  0
STYLE
  5
26
100
AcDbSymbolTableRecord
100
AcDbTextStyleTableRecord
  2
TATEGAKI
 70
    68
 40
0.0
 41
1.0
 50
0.0
 71
     0
 42
1.0
  3
txt
  4
bigfont.shx
  0
ENDTAB
  0
TABLE
  2
LAYER
 70
    4
  0
LAYER
  2
_0-3_âh__âÇ
 70
   64
 62
    7
  6
CONTINUOUS
  0
LAYER
  2
_8-0_
 70
   64
 62
    7
  6
CONTINUOUS
  0
LAYER
  2
_f-f_
 70
   64
 62
    7
  6
CONTINUOUS
  0
LAYER
  2
ADD_LINE
 70
   64
 62
    7
  6
CONTINUOUS
  0
ENDTAB
  0
ENDSEC
  0
SECTION
  2
BLOCKS
  0
ENDSEC
  0
SECTION
  2
ENTITIES
  0
LINE
  8
_0-3_âh__âÇ
  6
CONTINUOUS
 62
    7
 10
3482.2136319956458
 20
2392.9523256560037
 11
3422.4923613676851
 21
2387.1756627281884
  0
LINE
  8
_8-0_
  6
CONTINUOUS
 62
    7
 10
100.00000000000057
 20
235.20694400189541
 11
4100
 21
235.20694400189541
  0
LINE
  8
_8-0_
  6
CONTINUOUS
 62
    7
 10
452.65520800142212
 20
235.20694400189541
 11
452.65520800142212
 21
85.206944001895408
  0
LINE
  8
_8-0_
  6
CONTINUOUS
 62
    7
 10
3779.9552080014223
 20
235.20694400189541
 11
3779.9552080014223
 21
85.206944001895408
  0
LINE
  8
_8-0_
  6
CONTINUOUS
 62
    7
 10
1949.9552080014223
 20
235.20694400189541
 11
1949.9552080014223
 21
85.206944001895408
  0
LINE
  8
_8-0_
  6
CONTINUOUS
 62
    7
 10
452.65520800142212
 20
185.20694400189541
 11
1949.9552080014223
 21
185.20694400189541
  0
LINE
  8
_8-0_
  6
CONTINUOUS
 62
    7
 10
452.65520800142212
 20
135.20694400189541
 11
1949.9552080014223
 21
135.20694400189541
  0
LINE
  8
_8-0_
  6
CONTINUOUS
 62
    7
 10
100.00000000000057
 20
85
 11
4100
 21
85
  0
LINE
  8
_8-0_
  6
CONTINUOUS
 62
    7
 10
4100
 20
85
 11
4100
 21
2885
  0
LINE
  8
_8-0_
  6
CONTINUOUS
 62
    7
 10
4100
 20
2885
 11
100.00000000000057
 21
2885
  0
LINE
  8
_8-0_
  6
CONTINUOUS
 62
    7
 10
100.00000000000057
 20
2885
 11
100.00000000000057
 21
85
  0
LINE
  8
_8-0_
  6
CONTINUOUS
 62
    7
 10
3629.9552080014223
 20
235.20694400189541
 11
3629.9552080014223
 21
85.206944001895408
  0
LINE
  8
_8-0_
  6
CONTINUOUS
 62
    7
 10
2949.9552080014223
 20
235.20694400189541
 11
2949.9552080014223
 21
85.206944001895408
  0
LINE
  8
_8-0_
  6
CONTINUOUS
 62
    7
 10
2549.9552080014223
 20
235.20694400189541
 11
2549.9552080014223
 21
85.206944001895408
  0
LINE
  8
_8-0_
  6
CONTINUOUS
 62
    7
 10
2949.9552080014223
 20
160.20694400189541
 11
3229.9552080014223
 21
160.20694400189541
  0
LINE
  8
_8-0_
  6
CONTINUOUS
 62
    7
 10
3229.9552080014223
 20
235.20694400189541
 11
3229.9552080014223
 21
85.206944001895408
  0
CIRCLE
  8
_8-0_
  6
CONTINUOUS
 62
    7
 10
442.36473004322136
 20
165.65296725957921
 40
4.7179913754593441
  0
LINE
  8
_8-0_
  6
CONTINUOUS
 62
    7
 10
199.15615228161641
 20
206.83333333333323
 11
109.15615228161641
 21
206.83333333333323
  0
LINE
  8
_8-0_
  6
CONTINUOUS
 62
    7
 10
109.15615228161641
 20
206.83333333333323
 11
109.15615228161641
 21
116.83333333333309
  0
LINE
  8
_8-0_
  6
CONTINUOUS
 62
    7
 10
109.15615228161641
 20
116.83333333333309
 11
136.73490089143229
 21
144.41208194314896
  0
LINE
  8
_8-0_
  6
CONTINUOUS
 62
    7
 10
171.57740367180111
 20
179.25458472351721
 11
199.15615228161641
 21
206.83333333333323
  0
ARC
  8
_8-0_
  6
CONTINUOUS
 62
    7
 10
151.17948561494984
 20
164.81000000000023
 40
24.994421155307474
 50
35.303842184756199
 51
234.69615781526858
  0
LINE
  8
_8-0_
  6
CONTINUOUS
 62
    7
 10
198.6561522816163
 20
206.33333333333326
 11
109.15615228161641
 21
206.33333333333326
  0
LINE
  8
_8-0_
  6
CONTINUOUS
 62
    7
 10
198.15615228161676
 20
205.83333333333314
 11
109.15615228161641
 21
205.83333333333314
  0
LINE
  8
_8-0_
  6
CONTINUOUS
 62
    7
 10
197.65615228161664
 20
205.33333333333317
 11
109.15615228161641
 21
205.33333333333317
  0
LINE
  8
_8-0_
  6
CONTINUOUS
 62
    7
 10
197.15615228161653
 20
204.83333333333292
 11
109.15615228161641
 21
204.8333333333332
  0
LINE
  8
_8-0_
  6
CONTINUOUS
 62
    7
 10
196.65615228161641
 20
204.33333333333309
 11
109.15615228161641
 21
204.33333333333309
  0
LINE
  8
_8-0_
  6
CONTINUOUS
 62
    7
 10
196.15615228161687
 20
203.83333333333326
 11
109.15615228161641
 21
203.83333333333326
  0
LINE
  8
_8-0_
  6
CONTINUOUS
 62
    7
 10
195.65615228161619
 20
203.33333333333286
 11
109.15615228161641
 21
203.33333333333314
  0
LINE
  8
_8-0_
  6
CONTINUOUS
 62
    7
 10
195.15615228161664
 20
202.83333333333303
 11
109.15615228161641
 21
202.83333333333331
  0
LINE
  8
_8-0_
  6
CONTINUOUS
 62
    7
 10
194.65615228161653
 20
202.3333333333332
 11
109.15615228161641
 21
202.3333333333332
  0
LINE
  8
_8-0_
  6
CONTINUOUS
 62
    7
 10
194.15615228161641
 20
201.83333333333309
 11
109.15615228161641
 21
201.83333333333309
  0
LINE
  8
_8-0_
  6
CONTINUOUS
 62
    7
 10
193.65615228161687
 20
201.33333333333297
 11
109.15615228161641
 21
201.33333333333326
  0
LINE
  8
_8-0_
  6
CONTINUOUS
 62
    7
 10
193.15615228161619
 20
200.83333333333286
 11
109.15615228161641
 21
200.83333333333314
  0
LINE
  8
_8-0_
  6
CONTINUOUS
 62
    7
 10
192.65615228161664
 20
200.33333333333331
 11
109.15615228161641
 21
200.33333333333331
  0
LINE
  8
_8-0_
  6
CONTINUOUS
 62
    7
 10
192.15615228161653
 20
199.8333333333332
 11
109.15615228161641
 21
199.8333333333332
  0
LINE
  8
_8-0_
  6
CONTINUOUS
 62
    7
 10
191.65615228161641
 20
199.33333333333309
 11
109.15615228161641
 21
199.33333333333309
  0
LINE
  8
_8-0_
  6
CONTINUOUS
 62
    7
 10
191.1561522816163
 20
198.83333333333297
 11
109.15615228161641
 21
198.83333333333326
  0
LINE
  8
_8-0_
  6
CONTINUOUS
 62
    7
 10
190.65615228161619
 20
198.33333333333314
 11
109.15615228161641
 21
198.33333333333314
  0
LINE
  8
_8-0_
  6
CONTINUOUS
 62
    7
 10
190.15615228161664
 20
197.83333333333331
 11
109.15615228161641
 21
197.83333333333331
  0
LINE
  8
_8-0_
  6
CONTINUOUS
 62
    7
 10
189.65615228161653
 20
197.33333333333292
 11
109.15615228161641
 21
197.3333333333332
  0
LINE
  8
_8-0_
  6
CONTINUOUS
 62
    7
 10
189.15615228161641
 20
196.83333333333309
 11
109.15615228161641
 21
196.83333333333309
  0
LINE
  8
_8-0_
  6
CONTINUOUS
 62
    7
 10
188.65615228161687
 20
196.33333333333326
 11
109.15615228161641
 21
196.33333333333326
  0
LINE
  8
_8-0_
  6
CONTINUOUS
 62
    7
 10
188.15615228161676
 20
195.83333333333314
 11
109.15615228161641
 21
195.83333333333314
  0
LINE
  8
_8-0_
  6
CONTINUOUS
 62
    7
 10
187.65615228161664
 20
195.33333333333303
 11
109.15615228161641
 21
195.33333333333331
  0
LINE
  8
_8-0_
  6
CONTINUOUS
 62
    7
 10
187.15615228161653
 20
194.83333333333292
 11
109.15615228161641
 21
194.8333333333332
  0
LINE
  8
_8-0_
  6
CONTINUOUS
 62
    7
 10
186.65615228161641
 20
194.33333333333309
 11
109.15615228161641
 21
194.33333333333309
  0
LINE
  8
_8-0_
  6
CONTINUOUS
 62
    7
 10
186.1561522816163
 20
193.83333333333326
 11
109.15615228161641
 21
193.83333333333326
  0
LINE
  8
_8-0_
  6
CONTINUOUS
 62
    7
 10
185.65615228161676
 20
193.33333333333286
 11
109.15615228161641
 21
193.33333333333314
  0
LINE
  8
_8-0_
  6
CONTINUOUS
 62
    7
 10
185.15615228161664
 20
192.83333333333303
 11
109.15615228161641
 21
192.83333333333331
  0
LINE
  8
_8-0_
  6
CONTINUOUS
 62
    7
 10
184.65615228161653
 20
192.33333333333292
 11
109.15615228161641
 21
192.3333333333332
  0
LINE
  8
_8-0_
  6
CONTINUOUS
 62
    7
 10
184.15615228161641
 20
191.83333333333309
 11
109.15615228161641
 21
191.83333333333309
  0
LINE
  8
_8-0_
  6
CONTINUOUS
 62
    7
 10
183.6561522816163
 20
191.33333333333297
 11
109.15615228161641
 21
191.33333333333326
  0
LINE
  8
_8-0_
  6
CONTINUOUS
 62
    7
 10
183.15615228161619
 20
190.83333333333286
 11
109.15615228161641
 21
190.83333333333314
  0
LINE
  8
_8-0_
  6
CONTINUOUS
 62
    7
 10
182.65615228161664
 20
190.33333333333303
 11
109.15615228161641
 21
190.33333333333331
  0
LINE
  8
_8-0_
  6
CONTINUOUS
 62
    7
 10
182.15615228161653
 20
189.8333333333332
 11
109.15615228161641
 21
189.8333333333332
  0
LINE
  8
_8-0_
  6
CONTINUOUS
 62
    7
 10
181.65615228161641
 20
189.33333333333309
 11
156.00931077856842
 21
189.33333333333309
  0
LINE
  8
_8-0_
  6
CONTINUOUS
 62
    7
 10
146.34966045133012
 20
189.33333333333309
 11
109.15615228161641
 21
189.33333333333309
  0
LINE
  8
_8-0_
  6
CONTINUOUS
 62
    7
 10
181.15615228161687
 20
188.83333333333297
 11
158.07880039574229
 21
188.83333333333326
  0
LINE
  8
_8-0_
  6
CONTINUOUS
 62
    7
 10
144.28017083415739
 20
188.83333333333326
 11
109.15615228161641
 21
188.83333333333326
  0
LINE
  8
_8-0_
  6
CONTINUOUS
 62
    7
 10
180.65615228161619
 20
188.33333333333286
 11
159.6277918225752
 21
188.33333333333286
  0
LINE
  8
_8-0_
  6
CONTINUOUS
 62
    7
 10
142.73117940732391
 20
188.33333333333286
 11
109.15615228161641
 21
188.33333333333314
  0
LINE
  8
_8-0_
  6
CONTINUOUS
 62
    7
 10
180.15615228161664
 20
187.83333333333331
 11
160.90816543860171
 21
187.83333333333303
  0
LINE
  8
_8-0_
  6
CONTINUOUS
 62
    7
 10
141.4508057912974
 20
187.83333333333303
 11
109.15615228161641
 21
187.83333333333331
  0
LINE
  8
_8-0_
  6
CONTINUOUS
 62
    7
 10
179.65615228161653
 20
187.3333333333332
 11
162.0155616780113
 21
187.3333333333332
  0
LINE
  8
_8-0_
  6
CONTINUOUS
 62
    7
 10
140.34340955188782
 20
187.3333333333332
 11
109.15615228161641
 21
187.3333333333332
  0
LINE
  8
_8-0_
  6
CONTINUOUS
 62
    7
 10
179.15615228161641
 20
186.83333333333309
 11
162.99870207704259
 21
186.83333333333309
  0
LINE
  8
_8-0_
  6
CONTINUOUS
 62
    7
 10
139.36026915285709
 20
186.83333333333309
 11
109.15615228161641
 21
186.83333333333309
  0
LINE
  8
_8-0_
  6
CONTINUOUS
 62
    7
 10
178.6561522816163
 20
186.33333333333297
 11
163.88646051502462
 21
186.33333333333326
  0
LINE
  8
_8-0_
  6
CONTINUOUS
 62
    7
 10
138.47251071487506
 20
186.33333333333326
 11
109.15615228161641
 21
186.33333333333326
  0
LINE
  8
_8-0_
  6
CONTINUOUS
 62
    7
 10
178.15615228161619
 20
185.83333333333314
 11
164.69764171866643
 21
185.83333333333286
  0
LINE
  8
_8-0_
  6
CONTINUOUS
 62
    7
 10
137.66132951123268
 20
185.83333333333286
 11
109.15615228161641
 21
185.83333333333314
  0
LINE
  8
_8-0_
  6
CONTINUOUS
 62
    7
 10
177.65615228161664
 20
185.33333333333331
 11
165.44531464020451
 21
185.33333333333303
  0
LINE
  8
_8-0_
  6
CONTINUOUS
 62
    7
 10
136.9136565896946
 20
185.33333333333303
 11
109.15615228161641
 21
185.33333333333331
  0
LINE
  8
_8-0_
  6
CONTINUOUS
 62
    7
 10
177.15615228161653
 20
184.83333333333292
 11
166.13900469515841
 21
184.8333333333332
  0
LINE
  8
_8-0_
  6
CONTINUOUS
 62
    7
 10
136.21996653474071
 20
184.8333333333332
 11
109.15615228161641
 21
184.8333333333332
  0
LINE
  8
_8-0_
  6
CONTINUOUS
 62
    7
 10
176.65615228161698
 20
184.33333333333309
 11
166.78591199783625
 21
184.33333333333309
  0
LINE
  8
_8-0_
  6
CONTINUOUS
 62
    7
 10
135.57305923206286
 20
184.33333333333309
 11
109.15615228161641
 21
184.33333333333309
  0
LINE
  8
_8-0_
  6
CONTINUOUS
 62
    7
 10
176.1561522816163
 20
183.83333333333326
 11
167.39163777861393
 21
183.83333333333297
  0
LINE
  8
_8-0_
  6
CONTINUOUS
 62
    7
 10
134.96733345128575
 20
183.83333333333297
 11
109.15615228161641
 21
183.83333333333326
  0
LINE
  8
_8-0_
  6
CONTINUOUS
 62
    7
 10
175.65615228161676
 20
183.33333333333314
 11
167.96064204444349
 21
183.33333333333286
  0
LINE
  8
_8-0_
  6
CONTINUOUS
 62
    7
 10
134.39832918545619
 20
183.33333333333286
 11
109.15615228161641
 21
183.33333333333314
  0
LINE
  8
_8-0_
  6
CONTINUOUS
 62
    7
 10
175.15615228161607
 20
182.83333333333303
 11
168.49654496243886
 21
182.83333333333275
  0
LINE
  8
_8-0_
  6
CONTINUOUS
 62
    7
 10
133.86242626746025
 20
182.83333333333303
 11
109.15615228161641
 21
182.83333333333331
  0
LINE
  8
_8-0_
  6
CONTINUOUS
 62
    7
 10
174.65615228161653
 20
182.33333333333292
 11
169.00233268767636
 21
182.33333333333263
  0
LINE
  8
_8-0_
  6
CONTINUOUS
 62
    7
 10
133.35663854222275
 20
182.33333333333292
 11
109.15615228161641
 21
182.3333333333332
  0
LINE
  8
_8-0_
  6
CONTINUOUS
 62
    7
 10
174.15615228161698
 20
181.83333333333309
 11
169.48050228373404
 21
181.83333333333309
  0
LINE
  8
_8-0_
  6
CONTINUOUS
 62
    7
 10
132.87846894616507
 20
181.83333333333309
 11
109.15615228161641
 21
181.83333333333309
  0
LINE
  8
_8-0_
  6
CONTINUOUS
 62
    7
 10
173.6561522816163
 20
181.33333333333326
 11
169.9331664388427
 21
181.33333333333326
  0
LINE
  8
_8-0_
  6
CONTINUOUS
 62
    7
 10
132.42580479105698
 20
181.33333333333326
 11
109.15615228161641
 21
181.33333333333326
  0
LINE
  8
_8-0_
  6
CONTINUOUS
 62
    7
 10
173.15615228161676
 20
180.83333333333286
 11
170.36213083863515
 21
180.83333333333286
  0
LINE
  8
_8-0_
  6
CONTINUOUS
 62
    7
 10
131.99684039126396
 20
180.83333333333314
 11
109.15615228161641
 21
180.83333333333314
  0
LINE
  8
_8-0_
  6
CONTINUOUS
 62
    7
 10
172.65615228161607
 20
180.33333333333303
 11
170.76895245586002
 21
180.33333333333303
  0
LINE
  8
_8-0_
  6
CONTINUOUS
 62
    7
 10
131.59001877403909
 20
180.33333333333331
 11
109.15615228161641
 21
180.33333333333331
  0
LINE
  8
_8-0_
  6
CONTINUOUS
 62
    7
 10
172.15615228161653
 20
179.8333333333332
 11
171.15498421809946
 21
179.8333333333332
  0
LINE
  8
_8-0_
  6
CONTINUOUS
 62
    7
 10
131.20398701179965
 20
179.8333333333332
 11
109.15615228161641
 21
179.8333333333332
  0
LINE
  8
_8-0_
  6
CONTINUOUS
 62
    7
 10
171.65615228161698
 20
179.33333333333309
 11
171.52140975643135
 21
179.33333333333309
  0
LINE
  8
_8-0_
  6
CONTINUOUS
 62
    7
 10
130.83756147346833
 20
179.33333333333309
 11
109.15615228161641
 21
179.33333333333309
  0
LINE
  8
_8-0_
  6
CONTINUOUS
 62
    7
 10
130.48970042729934
 20
178.83333333333297
 11
109.15615228161641
 21
178.83333333333326
  0
LINE
  8
_8-0_
  6
CONTINUOUS
 62
    7
 10
130.15948217906839
 20
178.33333333333286
 11
109.15615228161641
 21
178.33333333333314
  0
LINE
  8
_8-0_
  6
CONTINUOUS
 62
    7
 10
129.84608743796457
 20
177.83333333333303
 11
109.15615228161641
 21
177.83333333333331
  0
LINE
  8
_8-0_
  6
CONTINUOUS
 62
    7
 10
129.54878495336345
 20
177.33333333333292
 11
109.15615228161641
 21
177.3333333333332
  0
LINE
  8
_8-0_
  6
CONTINUOUS
 62
    7
 10
129.26691971215178
 20
176.83333333333309
 11
109.15615228161641
 21
176.83333333333309
  0
LINE
  8
_8-0_
  6
CONTINUOUS
 62
    7
 10
128.99990316221249
 20
176.33333333333354
 11
109.15615228161641
 21
176.33333333333326
  0
LINE
  8
_8-0_
  6
CONTINUOUS
 62
    7
 10
128.74720505520429
 20
175.83333333333343
 11
109.15615228161641
 21
175.83333333333314
  0
LINE
  8
_8-0_
  6
CONTINUOUS
 62
    7
 10
128.50834659538464
 20
175.33333333333331
 11
109.15615228161641
 21
175.33333333333331
  0
LINE
  8
_8-0_
  6
CONTINUOUS
 62
    7
 10
128.28289465083913
 20
174.83333333333292
 11
109.15615228161641
 21
174.8333333333332
  0
LINE
  8
_8-0_
  6
CONTINUOUS
 62
    7
 10
128.07045683589592
 20
174.33333333333309
 11
109.15615228161641
 21
174.33333333333309
  0
LINE
  8
_8-0_
  6
CONTINUOUS
 62
    7
 10
127.87067731326999
 20
173.83333333333354
 11
109.15615228161641
 21
173.83333333333326
  0
LINE
  8
_8-0_
  6
CONTINUOUS
 62
    7
 10
127.68323319508966
 20
173.33333333333343
 11
109.15615228161641
 21
173.33333333333314
  0
LINE
  8
_8-0_
  6
CONTINUOUS
 62
    7
 10
127.50783144564593
 20
172.83333333333331
 11
109.15615228161641
 21
172.83333333333331
  0
LINE
  8
_8-0_
  6
CONTINUOUS
 62
    7
 10
127.34420620722176
 20
172.33333333333292
 11
109.15615228161641
 21
172.3333333333332
  0
LINE
  8
_8-0_
  6
CONTINUOUS
 62
    7
 10
127.19211648497264
 20
171.83333333333309
 11
109.15615228161641
 21
171.83333333333309
  0
LINE
  8
_8-0_
  6
CONTINUOUS
 62
    7
 10
127.05134413842643
 20
171.33333333333297
 11
109.15615228161641
 21
171.33333333333326
  0
LINE
  8
_8-0_
  6
CONTINUOUS
 62
    7
 10
126.92169213647219
 20
170.83333333333343
 11
109.15615228161641
 21
170.83333333333314
  0
LINE
  8
_8-0_
  6
CONTINUOUS
 62
    7
 10
126.80298304017981
 20
170.33333333333331
 11
109.15615228161641
 21
170.33333333333331
  0
LINE
  8
_8-0_
  6
CONTINUOUS
 62
    7
 10
126.69505768389286
 20
169.83333333333348
 11
109.15615228161641
 21
169.8333333333332
  0
LINE
  8
_8-0_
  6
CONTINUOUS
 62
    7
 10
126.59777403002465
 20
169.33333333333309
 11
109.15615228161641
 21
169.33333333333309
  0
LINE
  8
_8-0_
  6
CONTINUOUS
 62
    7
 10
126.51100617705595
 20
168.83333333333297
 11
109.15615228161641
 21
168.83333333333326
  0
LINE
  8
_8-0_
  6
CONTINUOUS
 62
    7
 10
126.43464350369129
 20
168.33333333333343
 11
109.15615228161641
 21
168.33333333333314
  0
LINE
  8
_8-0_
  6
CONTINUOUS
 62
    7
 10
126.36858993493775
 20
167.83333333333331
 11
109.15615228161641
 21
167.83333333333331
  0
LINE
  8
_8-0_
  6
CONTINUOUS
 62
    7
 10
126.31276331831828
 20
167.33333333333348
 11
109.15615228161641
 21
167.3333333333332
  0
LINE
  8
_8-0_
  6
CONTINUOUS
 62
    7
 10
126.26709490046551
 20
166.8333333333328
 11
109.15615228161641
 21
166.83333333333309
  0
LINE
  8
_8-0_
  6
CONTINUOUS
 62
    7
 10
126.231528896123
 20
166.33333333333297
 11
109.15615228161641
 21
166.33333333333326
  0
LINE
  8
_8-0_
  6
CONTINUOUS
 62
    7
 10
126.20602214314033
 20
165.83333333333286
 11
109.15615228161641
 21
165.83333333333314
  0
LINE
  8
_8-0_
  6
CONTINUOUS
 62
    7
 10
126.19054383841387
 20
165.33333333333303
 11
109.15615228161641
 21
165.33333333333331
  0
LINE
  8
_8-0_
  6
CONTINUOUS
 62
    7
 10
126.18507535096398
 20
164.83333333333292
 11
109.15615228161641
 21
164.8333333333332
  0
LINE
  8
_8-0_
  6
CONTINUOUS
 62
    7
 10
126.18961010950159
 20
164.33333333333309
 11
109.15615228161641
 21
164.33333333333309
  0
LINE
  8
_8-0_
  6
CONTINUOUS
 62
    7
 10
126.20415356288049
 20
163.83333333333297
 11
109.15615228161641
 21
163.83333333333326
  0
LINE
  8
_8-0_
  6
CONTINUOUS
 62
    7
 10
126.22872321288185
 20
163.33333333333286
 11
109.15615228161641
 21
163.33333333333314
  0
LINE
  8
_8-0_
  6
CONTINUOUS
 62
    7
 10
126.26334871980134
 20
162.83333333333303
 11
109.15615228161641
 21
162.83333333333331
  0
LINE
  8
_8-0_
  6
CONTINUOUS
 62
    7
 10
126.30807208231943
 20
162.33333333333292
 11
109.15615228161641
 21
162.3333333333332
  0
LINE
  8
_8-0_
  6
CONTINUOUS
 62
    7
 10
126.36294789421925
 20
161.83333333333309
 11
109.15615228161641
 21
161.83333333333309
  0
LINE
  8
_8-0_
  6
CONTINUOUS
 62
    7
 10
126.42804368164491
 20
161.33333333333297
 11
109.15615228161641
 21
161.33333333333326
  0
LINE
  8
_8-0_
  6
CONTINUOUS
 62
    7
 10
126.50344032582154
 20
160.83333333333286
 11
109.15615228161641
 21
160.83333333333314
  0
LINE
  8
_8-0_
  6
CONTINUOUS
 62
    7
 10
126.58923257752804
 20
160.33333333333303
 11
109.15615228161641
 21
160.33333333333331
  0
LINE
  8
_8-0_
  6
CONTINUOUS
 62
    7
 10
126.68552967113044
 20
159.83333333333292
 11
109.15615228161641
 21
159.8333333333332
  0
LINE
  8
_8-0_
  6
CONTINUOUS
 62
    7
 10
126.79245604775758
 20
159.33333333333309
 11
109.15615228161641
 21
159.33333333333309
  0
LINE
  8
_8-0_
  6
CONTINUOUS
 62
    7
 10
126.91015219920814
 20
158.83333333333297
 11
109.15615228161641
 21
158.83333333333326
  0
LINE
  8
_8-0_
  6
CONTINUOUS
 62
    7
 10
127.03877564656295
 20
158.33333333333286
 11
109.15615228161641
 21
158.33333333333314
  0
LINE
  8
_8-0_
  6
CONTINUOUS
 62
    7
 10
127.17850207028846
 20
157.83333333333303
 11
109.15615228161641
 21
157.83333333333331
  0
LINE
  8
_8-0_
  6
CONTINUOUS
 62
    7
 10
127.32952661195725
 20
157.33333333333292
 11
109.15615228161641
 21
157.3333333333332
  0
LINE
  8
_8-0_
  6
CONTINUOUS
 62
    7
 10
199.15615228161641
 20
206.83333333333323
 11
109.15615228161641
 21
206.83333333333323
  0
LINE
  8
_8-0_
  6
CONTINUOUS
 62
    7
 10
198.6561522816163
 20
206.33333333333326
 11
109.15615228161641
 21
206.33333333333326
  0
LINE
  8
_8-0_
  6
CONTINUOUS
 62
    7
 10
198.15615228161676
 20
205.83333333333314
 11
109.15615228161641
 21
205.83333333333314
  0
LINE
  8
_8-0_
  6
CONTINUOUS
 62
    7
 10
197.65615228161664
 20
205.33333333333317
 11
109.15615228161641
 21
205.33333333333317
  0
LINE
  8
_8-0_
  6
CONTINUOUS
 62
    7
 10
197.15615228161653
 20
204.83333333333292
 11
109.15615228161641
 21
204.8333333333332
  0
LINE
  8
_8-0_
  6
CONTINUOUS
 62
    7
 10
196.65615228161641
 20
204.33333333333309
 11
109.15615228161641
 21
204.33333333333309
  0
LINE
  8
_8-0_
  6
CONTINUOUS
 62
    7
 10
196.15615228161687
 20
203.83333333333326
 11
109.15615228161641
 21
203.83333333333326
  0
LINE
  8
_8-0_
  6
CONTINUOUS
 62
    7
 10
195.65615228161619
 20
203.33333333333286
 11
109.15615228161641
 21
203.33333333333314
  0
LINE
  8
_8-0_
  6
CONTINUOUS
 62
    7
 10
195.15615228161664
 20
202.83333333333303
 11
109.15615228161641
 21
202.83333333333331
  0
LINE
  8
_8-0_
  6
CONTINUOUS
 62
    7
 10
194.65615228161653
 20
202.3333333333332
 11
109.15615228161641
 21
202.3333333333332
  0
LINE
  8
_8-0_
  6
CONTINUOUS
 62
    7
 10
194.15615228161641
 20
201.83333333333309
 11
109.15615228161641
 21
201.83333333333309
  0
LINE
  8
_8-0_
  6
CONTINUOUS
 62
    7
 10
193.65615228161687
 20
201.33333333333297
 11
109.15615228161641
 21
201.33333333333326
  0
LINE
  8
_8-0_
  6
CONTINUOUS
 62
    7
 10
193.15615228161619
 20
200.83333333333286
 11
109.15615228161641
 21
200.83333333333314
  0
LINE
  8
_8-0_
  6
CONTINUOUS
 62
    7
 10
192.65615228161664
 20
200.33333333333331
 11
109.15615228161641
 21
200.33333333333331
  0
LINE
  8
_8-0_
  6
CONTINUOUS
 62
    7
 10
192.15615228161653
 20
199.8333333333332
 11
109.15615228161641
 21
199.8333333333332
  0
LINE
  8
_8-0_
  6
CONTINUOUS
 62
    7
 10
191.65615228161641
 20
199.33333333333309
 11
109.15615228161641
 21
199.33333333333309
  0
LINE
  8
_8-0_
  6
CONTINUOUS
 62
    7
 10
191.1561522816163
 20
198.83333333333297
 11
109.15615228161641
 21
198.83333333333326
  0
LINE
  8
_8-0_
  6
CONTINUOUS
 62
    7
 10
190.65615228161619
 20
198.33333333333314
 11
109.15615228161641
 21
198.33333333333314
  0
LINE
  8
_8-0_
  6
CONTINUOUS
 62
    7
 10
190.15615228161664
 20
197.83333333333331
 11
109.15615228161641
 21
197.83333333333331
  0
LINE
  8
_8-0_
  6
CONTINUOUS
 62
    7
 10
189.65615228161653
 20
197.33333333333292
 11
109.15615228161641
 21
197.3333333333332
  0
LINE
  8
_8-0_
  6
CONTINUOUS
 62
    7
 10
189.15615228161641
 20
196.83333333333309
 11
109.15615228161641
 21
196.83333333333309
  0
LINE
  8
_8-0_
  6
CONTINUOUS
 62
    7
 10
188.65615228161687
 20
196.33333333333326
 11
109.15615228161641
 21
196.33333333333326
  0
LINE
  8
_8-0_
  6
CONTINUOUS
 62
    7
 10
188.15615228161676
 20
195.83333333333314
 11
109.15615228161641
 21
195.83333333333314
  0
LINE
  8
_8-0_
  6
CONTINUOUS
 62
    7
 10
187.65615228161664
 20
195.33333333333303
 11
109.15615228161641
 21
195.33333333333331
  0
LINE
  8
_8-0_
  6
CONTINUOUS
 62
    7
 10
187.15615228161653
 20
194.83333333333292
 11
109.15615228161641
 21
194.8333333333332
  0
LINE
  8
_8-0_
  6
CONTINUOUS
 62
    7
 10
186.65615228161641
 20
194.33333333333309
 11
109.15615228161641
 21
194.33333333333309
  0
LINE
  8
_8-0_
  6
CONTINUOUS
 62
    7
 10
186.1561522816163
 20
193.83333333333326
 11
109.15615228161641
 21
193.83333333333326
  0
LINE
  8
_8-0_
  6
CONTINUOUS
 62
    7
 10
185.65615228161676
 20
193.33333333333286
 11
109.15615228161641
 21
193.33333333333314
  0
LINE
  8
_8-0_
  6
CONTINUOUS
 62
    7
 10
185.15615228161664
 20
192.83333333333303
 11
109.15615228161641
 21
192.83333333333331
  0
LINE
  8
_8-0_
  6
CONTINUOUS
 62
    7
 10
184.65615228161653
 20
192.33333333333292
 11
109.15615228161641
 21
192.3333333333332
  0
LINE
  8
_8-0_
  6
CONTINUOUS
 62
    7
 10
184.15615228161641
 20
191.83333333333309
 11
109.15615228161641
 21
191.83333333333309
  0
LINE
  8
_8-0_
  6
CONTINUOUS
 62
    7
 10
183.6561522816163
 20
191.33333333333297
 11
109.15615228161641
 21
191.33333333333326
  0
LINE
  8
_8-0_
  6
CONTINUOUS
 62
    7
 10
183.15615228161619
 20
190.83333333333286
 11
109.15615228161641
 21
190.83333333333314
  0
LINE
  8
_8-0_
  6
CONTINUOUS
 62
    7
 10
182.65615228161664
 20
190.33333333333303
 11
109.15615228161641
 21
190.33333333333331
  0
LINE
  8
_8-0_
  6
CONTINUOUS
 62
    7
 10
182.15615228161653
 20
189.8333333333332
 11
109.15615228161641
 21
189.8333333333332
  0
LINE
  8
_8-0_
  6
CONTINUOUS
 62
    7
 10
181.65615228161641
 20
189.33333333333309
 11
156.00931077856842
 21
189.33333333333309
  0
LINE
  8
_8-0_
  6
CONTINUOUS
 62
    7
 10
146.34966045133012
 20
189.33333333333309
 11
109.15615228161641
 21
189.33333333333309
  0
LINE
  8
_8-0_
  6
CONTINUOUS
 62
    7
 10
181.15615228161687
 20
188.83333333333297
 11
158.07880039574229
 21
188.83333333333326
  0
LINE
  8
_8-0_
  6
CONTINUOUS
 62
    7
 10
144.28017083415739
 20
188.83333333333326
 11
109.15615228161641
 21
188.83333333333326
  0
LINE
  8
_8-0_
  6
CONTINUOUS
 62
    7
 10
180.65615228161619
 20
188.33333333333286
 11
159.6277918225752
 21
188.33333333333286
  0
LINE
  8
_8-0_
  6
CONTINUOUS
 62
    7
 10
142.73117940732391
 20
188.33333333333286
 11
109.15615228161641
 21
188.33333333333314
  0
LINE
  8
_8-0_
  6
CONTINUOUS
 62
    7
 10
180.15615228161664
 20
187.83333333333331
 11
160.90816543860171
 21
187.83333333333303
  0
LINE
  8
_8-0_
  6
CONTINUOUS
 62
    7
 10
141.4508057912974
 20
187.83333333333303
 11
109.15615228161641
 21
187.83333333333331
  0
LINE
  8
_8-0_
  6
CONTINUOUS
 62
    7
 10
179.65615228161653
 20
187.3333333333332
 11
162.0155616780113
 21
187.3333333333332
  0
LINE
  8
_8-0_
  6
CONTINUOUS
 62
    7
 10
140.34340955188782
 20
187.3333333333332
 11
109.15615228161641
 21
187.3333333333332
  0
LINE
  8
_8-0_
  6
CONTINUOUS
 62
    7
 10
179.15615228161641
 20
186.83333333333309
 11
162.99870207704259
 21
186.83333333333309
  0
LINE
  8
_8-0_
  6
CONTINUOUS
 62
    7
 10
139.36026915285709
 20
186.83333333333309
 11
109.15615228161641
 21
186.83333333333309
  0
LINE
  8
_8-0_
  6
CONTINUOUS
 62
    7
 10
178.6561522816163
 20
186.33333333333297
 11
163.88646051502462
 21
186.33333333333326
  0
LINE
  8
_8-0_
  6
CONTINUOUS
 62
    7
 10
138.47251071487506
 20
186.33333333333326
 11
109.15615228161641
 21
186.33333333333326
  0
LINE
  8
_8-0_
  6
CONTINUOUS
 62
    7
 10
178.15615228161619
 20
185.83333333333314
 11
164.69764171866643
 21
185.83333333333286
  0
LINE
  8
_8-0_
  6
CONTINUOUS
 62
    7
 10
137.66132951123268
 20
185.83333333333286
 11
109.15615228161641
 21
185.83333333333314
  0
LINE
  8
_8-0_
  6
CONTINUOUS
 62
    7
 10
177.65615228161664
 20
185.33333333333331
 11
165.44531464020451
 21
185.33333333333303
  0
LINE
  8
_8-0_
  6
CONTINUOUS
 62
    7
 10
136.9136565896946
 20
185.33333333333303
 11
109.15615228161641
 21
185.33333333333331
  0
LINE
  8
_8-0_
  6
CONTINUOUS
 62
    7
 10
177.15615228161653
 20
184.83333333333292
 11
166.13900469515841
 21
184.8333333333332
  0
LINE
  8
_8-0_
  6
CONTINUOUS
 62
    7
 10
136.21996653474071
 20
184.8333333333332
 11
109.15615228161641
 21
184.8333333333332
  0
LINE
  8
_8-0_
  6
CONTINUOUS
 62
    7
 10
176.65615228161698
 20
184.33333333333309
 11
166.78591199783625
 21
184.33333333333309
  0
LINE
  8
_8-0_
  6
CONTINUOUS
 62
    7
 10
135.57305923206286
 20
184.33333333333309
 11
109.15615228161641
 21
184.33333333333309
  0
LINE
  8
_8-0_
  6
CONTINUOUS
 62
    7
 10
176.1561522816163
 20
183.83333333333326
 11
167.39163777861393
 21
183.83333333333297
  0
LINE
  8
_8-0_
  6
CONTINUOUS
 62
    7
 10
134.96733345128575
 20
183.83333333333297
 11
109.15615228161641
 21
183.83333333333326
  0
LINE
  8
_8-0_
  6
CONTINUOUS
 62
    7
 10
175.65615228161676
 20
183.33333333333314
 11
167.96064204444349
 21
183.33333333333286
  0
LINE
  8
_8-0_
  6
CONTINUOUS
 62
    7
 10
134.39832918545619
 20
183.33333333333286
 11
109.15615228161641
 21
183.33333333333314
  0
LINE
  8
_8-0_
  6
CONTINUOUS
 62
    7
 10
175.15615228161607
 20
182.83333333333303
 11
168.49654496243886
 21
182.83333333333275
  0
LINE
  8
_8-0_
  6
CONTINUOUS
 62
    7
 10
133.86242626746025
 20
182.83333333333303
 11
109.15615228161641
 21
182.83333333333331
  0
LINE
  8
_8-0_
  6
CONTINUOUS
 62
    7
 10
174.65615228161653
 20
182.33333333333292
 11
169.00233268767636
 21
182.33333333333263
  0
LINE
  8
_8-0_
  6
CONTINUOUS
 62
    7
 10
133.35663854222275
 20
182.33333333333292
 11
109.15615228161641
 21
182.3333333333332
  0
LINE
  8
_8-0_
  6
CONTINUOUS
 62
    7
 10
174.15615228161698
 20
181.83333333333309
 11
169.48050228373404
 21
181.83333333333309
  0
LINE
  8
_8-0_
  6
CONTINUOUS
 62
    7
 10
132.87846894616507
 20
181.83333333333309
 11
109.15615228161641
 21
181.83333333333309
  0
LINE
  8
_8-0_
  6
CONTINUOUS
 62
    7
 10
173.6561522816163
 20
181.33333333333326
 11
169.9331664388427
 21
181.33333333333326
  0
LINE
  8
_8-0_
  6
CONTINUOUS
 62
    7
 10
132.42580479105698
 20
181.33333333333326
 11
109.15615228161641
 21
181.33333333333326
  0
LINE
  8
_8-0_
  6
CONTINUOUS
 62
    7
 10
173.15615228161676
 20
180.83333333333286
 11
170.36213083863515
 21
180.83333333333286
  0
LINE
  8
_8-0_
  6
CONTINUOUS
 62
    7
 10
131.99684039126396
 20
180.83333333333314
 11
109.15615228161641
 21
180.83333333333314
  0
LINE
  8
_8-0_
  6
CONTINUOUS
 62
    7
 10
172.65615228161607
 20
180.33333333333303
 11
170.76895245586002
 21
180.33333333333303
  0
LINE
  8
_8-0_
  6
CONTINUOUS
 62
    7
 10
131.59001877403909
 20
180.33333333333331
 11
109.15615228161641
 21
180.33333333333331
  0
LINE
  8
_8-0_
  6
CONTINUOUS
 62
    7
 10
172.15615228161653
 20
179.8333333333332
 11
171.15498421809946
 21
179.8333333333332
  0
LINE
  8
_8-0_
  6
CONTINUOUS
 62
    7
 10
131.20398701179965
 20
179.8333333333332
 11
109.15615228161641
 21
179.8333333333332
  0
LINE
  8
_8-0_
  6
CONTINUOUS
 62
    7
 10
171.65615228161698
 20
179.33333333333309
 11
171.52140975643135
 21
179.33333333333309
  0
LINE
  8
_8-0_
  6
CONTINUOUS
 62
    7
 10
130.83756147346833
 20
179.33333333333309
 11
109.15615228161641
 21
179.33333333333309
  0
LINE
  8
_8-0_
  6
CONTINUOUS
 62
    7
 10
130.48970042729934
 20
178.83333333333297
 11
109.15615228161641
 21
178.83333333333326
  0
LINE
  8
_8-0_
  6
CONTINUOUS
 62
    7
 10
130.15948217906839
 20
178.33333333333286
 11
109.15615228161641
 21
178.33333333333314
  0
LINE
  8
_8-0_
  6
CONTINUOUS
 62
    7
 10
129.84608743796457
 20
177.83333333333303
 11
109.15615228161641
 21
177.83333333333331
  0
LINE
  8
_8-0_
  6
CONTINUOUS
 62
    7
 10
129.54878495336345
 20
177.33333333333292
 11
109.15615228161641
 21
177.3333333333332
  0
LINE
  8
_8-0_
  6
CONTINUOUS
 62
    7
 10
129.26691971215178
 20
176.83333333333309
 11
109.15615228161641
 21
176.83333333333309
  0
LINE
  8
_8-0_
  6
CONTINUOUS
 62
    7
 10
128.99990316221249
 20
176.33333333333354
 11
109.15615228161641
 21
176.33333333333326
  0
LINE
  8
_8-0_
  6
CONTINUOUS
 62
    7
 10
128.74720505520429
 20
175.83333333333343
 11
109.15615228161641
 21
175.83333333333314
  0
LINE
  8
_8-0_
  6
CONTINUOUS
 62
    7
 10
128.50834659538464
 20
175.33333333333331
 11
109.15615228161641
 21
175.33333333333331
  0
LINE
  8
_8-0_
  6
CONTINUOUS
 62
    7
 10
128.28289465083913
 20
174.83333333333292
 11
109.15615228161641
 21
174.8333333333332
  0
LINE
  8
_8-0_
  6
CONTINUOUS
 62
    7
 10
128.07045683589592
 20
174.33333333333309
 11
109.15615228161641
 21
174.33333333333309
  0
LINE
  8
_8-0_
  6
CONTINUOUS
 62
    7
 10
127.87067731326999
 20
173.83333333333354
 11
109.15615228161641
 21
173.83333333333326
  0
LINE
  8
_8-0_
  6
CONTINUOUS
 62
    7
 10
127.68323319508966
 20
173.33333333333343
 11
109.15615228161641
 21
173.33333333333314
  0
LINE
  8
_8-0_
  6
CONTINUOUS
 62
    7
 10
127.50783144564593
 20
172.83333333333331
 11
109.15615228161641
 21
172.83333333333331
  0
LINE
  8
_8-0_
  6
CONTINUOUS
 62
    7
 10
127.34420620722176
 20
172.33333333333292
 11
109.15615228161641
 21
172.3333333333332
  0
LINE
  8
_8-0_
  6
CONTINUOUS
 62
    7
 10
127.19211648497264
 20
171.83333333333309
 11
109.15615228161641
 21
171.83333333333309
  0
LINE
  8
_8-0_
  6
CONTINUOUS
 62
    7
 10
127.05134413842643
 20
171.33333333333297
 11
109.15615228161641
 21
171.33333333333326
  0
LINE
  8
_8-0_
  6
CONTINUOUS
 62
    7
 10
126.92169213647219
 20
170.83333333333343
 11
109.15615228161641
 21
170.83333333333314
  0
LINE
  8
_8-0_
  6
CONTINUOUS
 62
    7
 10
126.80298304017981
 20
170.33333333333331
 11
109.15615228161641
 21
170.33333333333331
  0
LINE
  8
_8-0_
  6
CONTINUOUS
 62
    7
 10
126.69505768389286
 20
169.83333333333348
 11
109.15615228161641
 21
169.8333333333332
  0
LINE
  8
_8-0_
  6
CONTINUOUS
 62
    7
 10
126.59777403002465
 20
169.33333333333309
 11
109.15615228161641
 21
169.33333333333309
  0
LINE
  8
_8-0_
  6
CONTINUOUS
 62
    7
 10
126.51100617705595
 20
168.83333333333297
 11
109.15615228161641
 21
168.83333333333326
  0
LINE
  8
_8-0_
  6
CONTINUOUS
 62
    7
 10
126.43464350369129
 20
168.33333333333343
 11
109.15615228161641
 21
168.33333333333314
  0
LINE
  8
_8-0_
  6
CONTINUOUS
 62
    7
 10
126.36858993493775
 20
167.83333333333331
 11
109.15615228161641
 21
167.83333333333331
  0
LINE
  8
_8-0_
  6
CONTINUOUS
 62
    7
 10
126.31276331831828
 20
167.33333333333348
 11
109.15615228161641
 21
167.3333333333332
  0
LINE
  8
_8-0_
  6
CONTINUOUS
 62
    7
 10
126.26709490046551
 20
166.8333333333328
 11
109.15615228161641
 21
166.83333333333309
  0
LINE
  8
_8-0_
  6
CONTINUOUS
 62
    7
 10
126.231528896123
 20
166.33333333333297
 11
109.15615228161641
 21
166.33333333333326
  0
LINE
  8
_8-0_
  6
CONTINUOUS
 62
    7
 10
126.20602214314033
 20
165.83333333333286
 11
109.15615228161641
 21
165.83333333333314
  0
LINE
  8
_8-0_
  6
CONTINUOUS
 62
    7
 10
126.19054383841387
 20
165.33333333333303
 11
109.15615228161641
 21
165.33333333333331
  0
LINE
  8
_8-0_
  6
CONTINUOUS
 62
    7
 10
126.18507535096398
 20
164.83333333333292
 11
109.15615228161641
 21
164.8333333333332
  0
LINE
  8
_8-0_
  6
CONTINUOUS
 62
    7
 10
126.18961010950159
 20
164.33333333333309
 11
109.15615228161641
 21
164.33333333333309
  0
LINE
  8
_8-0_
  6
CONTINUOUS
 62
    7
 10
126.20415356288049
 20
163.83333333333297
 11
109.15615228161641
 21
163.83333333333326
  0
LINE
  8
_8-0_
  6
CONTINUOUS
 62
    7
 10
126.22872321288185
 20
163.33333333333286
 11
109.15615228161641
 21
163.33333333333314
  0
LINE
  8
_8-0_
  6
CONTINUOUS
 62
    7
 10
126.26334871980134
 20
162.83333333333303
 11
109.15615228161641
 21
162.83333333333331
  0
LINE
  8
_8-0_
  6
CONTINUOUS
 62
    7
 10
126.30807208231943
 20
162.33333333333292
 11
109.15615228161641
 21
162.3333333333332
  0
LINE
  8
_8-0_
  6
CONTINUOUS
 62
    7
 10
126.36294789421925
 20
161.83333333333309
 11
109.15615228161641
 21
161.83333333333309
  0
LINE
  8
_8-0_
  6
CONTINUOUS
 62
    7
 10
126.42804368164491
 20
161.33333333333297
 11
109.15615228161641
 21
161.33333333333326
  0
LINE
  8
_8-0_
  6
CONTINUOUS
 62
    7
 10
126.50344032582154
 20
160.83333333333286
 11
109.15615228161641
 21
160.83333333333314
  0
LINE
  8
_8-0_
  6
CONTINUOUS
 62
    7
 10
126.58923257752804
 20
160.33333333333303
 11
109.15615228161641
 21
160.33333333333331
  0
LINE
  8
_8-0_
  6
CONTINUOUS
 62
    7
 10
126.68552967113044
 20
159.83333333333292
 11
109.15615228161641
 21
159.8333333333332
  0
LINE
  8
_8-0_
  6
CONTINUOUS
 62
    7
 10
126.79245604775758
 20
159.33333333333309
 11
109.15615228161641
 21
159.33333333333309
  0
LINE
  8
_8-0_
  6
CONTINUOUS
 62
    7
 10
126.91015219920814
 20
158.83333333333297
 11
109.15615228161641
 21
158.83333333333326
  0
LINE
  8
_8-0_
  6
CONTINUOUS
 62
    7
 10
127.03877564656295
 20
158.33333333333286
 11
109.15615228161641
 21
158.33333333333314
  0
LINE
  8
_8-0_
  6
CONTINUOUS
 62
    7
 10
127.17850207028846
 20
157.83333333333303
 11
109.15615228161641
 21
157.83333333333331
  0
LINE
  8
_8-0_
  6
CONTINUOUS
 62
    7
 10
127.32952661195725
 20
157.33333333333292
 11
109.15615228161641
 21
157.3333333333332
  0
LINE
  8
_8-0_
  6
CONTINUOUS
 62
    7
 10
199.15615228161641
 20
206.83333333333323
 11
109.15615228161641
 21
206.83333333333323
  0
LINE
  8
_8-0_
  6
CONTINUOUS
 62
    7
 10
198.6561522816163
 20
206.33333333333326
 11
109.15615228161641
 21
206.33333333333326
  0
LINE
  8
_8-0_
  6
CONTINUOUS
 62
    7
 10
198.15615228161676
 20
205.83333333333314
 11
109.15615228161641
 21
205.83333333333314
  0
LINE
  8
_8-0_
  6
CONTINUOUS
 62
    7
 10
197.65615228161664
 20
205.33333333333317
 11
109.15615228161641
 21
205.33333333333317
  0
LINE
  8
_8-0_
  6
CONTINUOUS
 62
    7
 10
197.15615228161653
 20
204.83333333333292
 11
109.15615228161641
 21
204.8333333333332
  0
LINE
  8
_8-0_
  6
CONTINUOUS
 62
    7
 10
196.65615228161641
 20
204.33333333333309
 11
109.15615228161641
 21
204.33333333333309
  0
LINE
  8
_8-0_
  6
CONTINUOUS
 62
    7
 10
196.15615228161687
 20
203.83333333333326
 11
109.15615228161641
 21
203.83333333333326
  0
LINE
  8
_8-0_
  6
CONTINUOUS
 62
    7
 10
195.65615228161619
 20
203.33333333333286
 11
109.15615228161641
 21
203.33333333333314
  0
LINE
  8
_8-0_
  6
CONTINUOUS
 62
    7
 10
195.15615228161664
 20
202.83333333333303
 11
109.15615228161641
 21
202.83333333333331
  0
LINE
  8
_8-0_
  6
CONTINUOUS
 62
    7
 10
194.65615228161653
 20
202.3333333333332
 11
109.15615228161641
 21
202.3333333333332
  0
LINE
  8
_8-0_
  6
CONTINUOUS
 62
    7
 10
194.15615228161641
 20
201.83333333333309
 11
109.15615228161641
 21
201.83333333333309
  0
LINE
  8
_8-0_
  6
CONTINUOUS
 62
    7
 10
193.65615228161687
 20
201.33333333333297
 11
109.15615228161641
 21
201.33333333333326
  0
LINE
  8
_8-0_
  6
CONTINUOUS
 62
    7
 10
193.15615228161619
 20
200.83333333333286
 11
109.15615228161641
 21
200.83333333333314
  0
LINE
  8
_8-0_
  6
CONTINUOUS
 62
    7
 10
192.65615228161664
 20
200.33333333333331
 11
109.15615228161641
 21
200.33333333333331
  0
LINE
  8
_8-0_
  6
CONTINUOUS
 62
    7
 10
192.15615228161653
 20
199.8333333333332
 11
109.15615228161641
 21
199.8333333333332
  0
LINE
  8
_8-0_
  6
CONTINUOUS
 62
    7
 10
191.65615228161641
 20
199.33333333333309
 11
109.15615228161641
 21
199.33333333333309
  0
LINE
  8
_8-0_
  6
CONTINUOUS
 62
    7
 10
191.1561522816163
 20
198.83333333333297
 11
109.15615228161641
 21
198.83333333333326
  0
LINE
  8
_8-0_
  6
CONTINUOUS
 62
    7
 10
190.65615228161619
 20
198.33333333333314
 11
109.15615228161641
 21
198.33333333333314
  0
LINE
  8
_8-0_
  6
CONTINUOUS
 62
    7
 10
190.15615228161664
 20
197.83333333333331
 11
109.15615228161641
 21
197.83333333333331
  0
LINE
  8
_8-0_
  6
CONTINUOUS
 62
    7
 10
189.65615228161653
 20
197.33333333333292
 11
109.15615228161641
 21
197.3333333333332
  0
LINE
  8
_8-0_
  6
CONTINUOUS
 62
    7
 10
189.15615228161641
 20
196.83333333333309
 11
109.15615228161641
 21
196.83333333333309
  0
LINE
  8
_8-0_
  6
CONTINUOUS
 62
    7
 10
188.65615228161687
 20
196.33333333333326
 11
109.15615228161641
 21
196.33333333333326
  0
LINE
  8
_8-0_
  6
CONTINUOUS
 62
    7
 10
188.15615228161676
 20
195.83333333333314
 11
109.15615228161641
 21
195.83333333333314
  0
LINE
  8
_8-0_
  6
CONTINUOUS
 62
    7
 10
187.65615228161664
 20
195.33333333333303
 11
109.15615228161641
 21
195.33333333333331
  0
LINE
  8
_8-0_
  6
CONTINUOUS
 62
    7
 10
187.15615228161653
 20
194.83333333333292
 11
109.15615228161641
 21
194.8333333333332
  0
LINE
  8
_8-0_
  6
CONTINUOUS
 62
    7
 10
186.65615228161641
 20
194.33333333333309
 11
109.15615228161641
 21
194.33333333333309
  0
LINE
  8
_8-0_
  6
CONTINUOUS
 62
    7
 10
186.1561522816163
 20
193.83333333333326
 11
109.15615228161641
 21
193.83333333333326
  0
LINE
  8
_8-0_
  6
CONTINUOUS
 62
    7
 10
185.65615228161676
 20
193.33333333333286
 11
109.15615228161641
 21
193.33333333333314
  0
LINE
  8
_8-0_
  6
CONTINUOUS
 62
    7
 10
185.15615228161664
 20
192.83333333333303
 11
109.15615228161641
 21
192.83333333333331
  0
LINE
  8
_8-0_
  6
CONTINUOUS
 62
    7
 10
184.65615228161653
 20
192.33333333333292
 11
109.15615228161641
 21
192.3333333333332
  0
LINE
  8
_8-0_
  6
CONTINUOUS
 62
    7
 10
184.15615228161641
 20
191.83333333333309
 11
109.15615228161641
 21
191.83333333333309
  0
LINE
  8
_8-0_
  6
CONTINUOUS
 62
    7
 10
183.6561522816163
 20
191.33333333333297
 11
109.15615228161641
 21
191.33333333333326
  0
LINE
  8
_8-0_
  6
CONTINUOUS
 62
    7
 10
183.15615228161619
 20
190.83333333333286
 11
109.15615228161641
 21
190.83333333333314
  0
LINE
  8
_8-0_
  6
CONTINUOUS
 62
    7
 10
182.65615228161664
 20
190.33333333333303
 11
109.15615228161641
 21
190.33333333333331
  0
LINE
  8
_8-0_
  6
CONTINUOUS
 62
    7
 10
182.15615228161653
 20
189.8333333333332
 11
109.15615228161641
 21
189.8333333333332
  0
LINE
  8
_8-0_
  6
CONTINUOUS
 62
    7
 10
181.65615228161641
 20
189.33333333333309
 11
156.00931077856842
 21
189.33333333333309
  0
LINE
  8
_8-0_
  6
CONTINUOUS
 62
    7
 10
146.34966045133012
 20
189.33333333333309
 11
109.15615228161641
 21
189.33333333333309
  0
LINE
  8
_8-0_
  6
CONTINUOUS
 62
    7
 10
181.15615228161687
 20
188.83333333333297
 11
158.07880039574229
 21
188.83333333333326
  0
LINE
  8
_8-0_
  6
CONTINUOUS
 62
    7
 10
144.28017083415739
 20
188.83333333333326
 11
109.15615228161641
 21
188.83333333333326
  0
LINE
  8
_8-0_
  6
CONTINUOUS
 62
    7
 10
180.65615228161619
 20
188.33333333333286
 11
159.6277918225752
 21
188.33333333333286
  0
LINE
  8
_8-0_
  6
CONTINUOUS
 62
    7
 10
142.73117940732391
 20
188.33333333333286
 11
109.15615228161641
 21
188.33333333333314
  0
LINE
  8
_8-0_
  6
CONTINUOUS
 62
    7
 10
180.15615228161664
 20
187.83333333333331
 11
160.90816543860171
 21
187.83333333333303
  0
LINE
  8
_8-0_
  6
CONTINUOUS
 62
    7
 10
141.4508057912974
 20
187.83333333333303
 11
109.15615228161641
 21
187.83333333333331
  0
LINE
  8
_8-0_
  6
CONTINUOUS
 62
    7
 10
179.65615228161653
 20
187.3333333333332
 11
162.0155616780113
 21
187.3333333333332
  0
LINE
  8
_8-0_
  6
CONTINUOUS
 62
    7
 10
140.34340955188782
 20
187.3333333333332
 11
109.15615228161641
 21
187.3333333333332
  0
LINE
  8
_8-0_
  6
CONTINUOUS
 62
    7
 10
179.15615228161641
 20
186.83333333333309
 11
162.99870207704259
 21
186.83333333333309
  0
LINE
  8
_8-0_
  6
CONTINUOUS
 62
    7
 10
139.36026915285709
 20
186.83333333333309
 11
109.15615228161641
 21
186.83333333333309
  0
LINE
  8
_8-0_
  6
CONTINUOUS
 62
    7
 10
178.6561522816163
 20
186.33333333333297
 11
163.88646051502462
 21
186.33333333333326
  0
LINE
  8
_8-0_
  6
CONTINUOUS
 62
    7
 10
138.47251071487506
 20
186.33333333333326
 11
109.15615228161641
 21
186.33333333333326
  0
LINE
  8
_8-0_
  6
CONTINUOUS
 62
    7
 10
178.15615228161619
 20
185.83333333333314
 11
164.69764171866643
 21
185.83333333333286
  0
LINE
  8
_8-0_
  6
CONTINUOUS
 62
    7
 10
137.66132951123268
 20
185.83333333333286
 11
109.15615228161641
 21
185.83333333333314
  0
LINE
  8
_8-0_
  6
CONTINUOUS
 62
    7
 10
177.65615228161664
 20
185.33333333333331
 11
165.44531464020451
 21
185.33333333333303
  0
LINE
  8
_8-0_
  6
CONTINUOUS
 62
    7
 10
136.9136565896946
 20
185.33333333333303
 11
109.15615228161641
 21
185.33333333333331
  0
LINE
  8
_8-0_
  6
CONTINUOUS
 62
    7
 10
177.15615228161653
 20
184.83333333333292
 11
166.13900469515841
 21
184.8333333333332
  0
LINE
  8
_8-0_
  6
CONTINUOUS
 62
    7
 10
136.21996653474071
 20
184.8333333333332
 11
109.15615228161641
 21
184.8333333333332
  0
LINE
  8
_8-0_
  6
CONTINUOUS
 62
    7
 10
176.65615228161698
 20
184.33333333333309
 11
166.78591199783625
 21
184.33333333333309
  0
LINE
  8
_8-0_
  6
CONTINUOUS
 62
    7
 10
135.57305923206286
 20
184.33333333333309
 11
109.15615228161641
 21
184.33333333333309
  0
LINE
  8
_8-0_
  6
CONTINUOUS
 62
    7
 10
176.1561522816163
 20
183.83333333333326
 11
167.39163777861393
 21
183.83333333333297
  0
LINE
  8
_8-0_
  6
CONTINUOUS
 62
    7
 10
134.96733345128575
 20
183.83333333333297
 11
109.15615228161641
 21
183.83333333333326
  0
LINE
  8
_8-0_
  6
CONTINUOUS
 62
    7
 10
175.65615228161676
 20
183.33333333333314
 11
167.96064204444349
 21
183.33333333333286
  0
LINE
  8
_8-0_
  6
CONTINUOUS
 62
    7
 10
134.39832918545619
 20
183.33333333333286
 11
109.15615228161641
 21
183.33333333333314
  0
LINE
  8
_8-0_
  6
CONTINUOUS
 62
    7
 10
175.15615228161607
 20
182.83333333333303
 11
168.49654496243886
 21
182.83333333333275
  0
LINE
  8
_8-0_
  6
CONTINUOUS
 62
    7
 10
133.86242626746025
 20
182.83333333333303
 11
109.15615228161641
 21
182.83333333333331
  0
LINE
  8
_8-0_
  6
CONTINUOUS
 62
    7
 10
174.65615228161653
 20
182.33333333333292
 11
169.00233268767636
 21
182.33333333333263
  0
LINE
  8
_8-0_
  6
CONTINUOUS
 62
    7
 10
133.35663854222275
 20
182.33333333333292
 11
109.15615228161641
 21
182.3333333333332
  0
LINE
  8
_8-0_
  6
CONTINUOUS
 62
    7
 10
174.15615228161698
 20
181.83333333333309
 11
169.48050228373404
 21
181.83333333333309
  0
LINE
  8
_8-0_
  6
CONTINUOUS
 62
    7
 10
132.87846894616507
 20
181.83333333333309
 11
109.15615228161641
 21
181.83333333333309
  0
LINE
  8
_8-0_
  6
CONTINUOUS
 62
    7
 10
173.6561522816163
 20
181.33333333333326
 11
169.9331664388427
 21
181.33333333333326
  0
LINE
  8
_8-0_
  6
CONTINUOUS
 62
    7
 10
132.42580479105698
 20
181.33333333333326
 11
109.15615228161641
 21
181.33333333333326
  0
LINE
  8
_8-0_
  6
CONTINUOUS
 62
    7
 10
173.15615228161676
 20
180.83333333333286
 11
170.36213083863515
 21
180.83333333333286
  0
LINE
  8
_8-0_
  6
CONTINUOUS
 62
    7
 10
131.99684039126396
 20
180.83333333333314
 11
109.15615228161641
 21
180.83333333333314
  0
LINE
  8
_8-0_
  6
CONTINUOUS
 62
    7
 10
172.65615228161607
 20
180.33333333333303
 11
170.76895245586002
 21
180.33333333333303
  0
LINE
  8
_8-0_
  6
CONTINUOUS
 62
    7
 10
131.59001877403909
 20
180.33333333333331
 11
109.15615228161641
 21
180.33333333333331
  0
LINE
  8
_8-0_
  6
CONTINUOUS
 62
    7
 10
172.15615228161653
 20
179.8333333333332
 11
171.15498421809946
 21
179.8333333333332
  0
LINE
  8
_8-0_
  6
CONTINUOUS
 62
    7
 10
131.20398701179965
 20
179.8333333333332
 11
109.15615228161641
 21
179.8333333333332
  0
LINE
  8
_8-0_
  6
CONTINUOUS
 62
    7
 10
171.65615228161698
 20
179.33333333333309
 11
171.52140975643135
 21
179.33333333333309
  0
LINE
  8
_8-0_
  6
CONTINUOUS
 62
    7
 10
130.83756147346833
 20
179.33333333333309
 11
109.15615228161641
 21
179.33333333333309
  0
LINE
  8
_8-0_
  6
CONTINUOUS
 62
    7
 10
130.48970042729934
 20
178.83333333333297
 11
109.15615228161641
 21
178.83333333333326
  0
LINE
  8
_8-0_
  6
CONTINUOUS
 62
    7
 10
130.15948217906839
 20
178.33333333333286
 11
109.15615228161641
 21
178.33333333333314
  0
LINE
  8
_8-0_
  6
CONTINUOUS
 62
    7
 10
129.84608743796457
 20
177.83333333333303
 11
109.15615228161641
 21
177.83333333333331
  0
LINE
  8
_8-0_
  6
CONTINUOUS
 62
    7
 10
129.54878495336345
 20
177.33333333333292
 11
109.15615228161641
 21
177.3333333333332
  0
LINE
  8
_8-0_
  6
CONTINUOUS
 62
    7
 10
129.26691971215178
 20
176.83333333333309
 11
109.15615228161641
 21
176.83333333333309
  0
LINE
  8
_8-0_
  6
CONTINUOUS
 62
    7
 10
128.99990316221249
 20
176.33333333333354
 11
109.15615228161641
 21
176.33333333333326
  0
LINE
  8
_8-0_
  6
CONTINUOUS
 62
    7
 10
128.74720505520429
 20
175.83333333333343
 11
109.15615228161641
 21
175.83333333333314
  0
LINE
  8
_8-0_
  6
CONTINUOUS
 62
    7
 10
128.50834659538464
 20
175.33333333333331
 11
109.15615228161641
 21
175.33333333333331
  0
LINE
  8
_8-0_
  6
CONTINUOUS
 62
    7
 10
128.28289465083913
 20
174.83333333333292
 11
109.15615228161641
 21
174.8333333333332
  0
LINE
  8
_8-0_
  6
CONTINUOUS
 62
    7
 10
128.07045683589592
 20
174.33333333333309
 11
109.15615228161641
 21
174.33333333333309
  0
LINE
  8
_8-0_
  6
CONTINUOUS
 62
    7
 10
127.87067731326999
 20
173.83333333333354
 11
109.15615228161641
 21
173.83333333333326
  0
LINE
  8
_8-0_
  6
CONTINUOUS
 62
    7
 10
127.68323319508966
 20
173.33333333333343
 11
109.15615228161641
 21
173.33333333333314
  0
LINE
  8
_8-0_
  6
CONTINUOUS
 62
    7
 10
127.50783144564593
 20
172.83333333333331
 11
109.15615228161641
 21
172.83333333333331
  0
LINE
  8
_8-0_
  6
CONTINUOUS
 62
    7
 10
127.34420620722176
 20
172.33333333333292
 11
109.15615228161641
 21
172.3333333333332
  0
LINE
  8
_8-0_
  6
CONTINUOUS
 62
    7
 10
127.19211648497264
 20
171.83333333333309
 11
109.15615228161641
 21
171.83333333333309
  0
LINE
  8
_8-0_
  6
CONTINUOUS
 62
    7
 10
127.05134413842643
 20
171.33333333333297
 11
109.15615228161641
 21
171.33333333333326
  0
LINE
  8
_8-0_
  6
CONTINUOUS
 62
    7
 10
126.92169213647219
 20
170.83333333333343
 11
109.15615228161641
 21
170.83333333333314
  0
LINE
  8
_8-0_
  6
CONTINUOUS
 62
    7
 10
126.80298304017981
 20
170.33333333333331
 11
109.15615228161641
 21
170.33333333333331
  0
LINE
  8
_8-0_
  6
CONTINUOUS
 62
    7
 10
126.69505768389286
 20
169.83333333333348
 11
109.15615228161641
 21
169.8333333333332
  0
LINE
  8
_8-0_
  6
CONTINUOUS
 62
    7
 10
126.59777403002465
 20
169.33333333333309
 11
109.15615228161641
 21
169.33333333333309
  0
LINE
  8
_8-0_
  6
CONTINUOUS
 62
    7
 10
126.51100617705595
 20
168.83333333333297
 11
109.15615228161641
 21
168.83333333333326
  0
LINE
  8
_8-0_
  6
CONTINUOUS
 62
    7
 10
126.43464350369129
 20
168.33333333333343
 11
109.15615228161641
 21
168.33333333333314
  0
LINE
  8
_8-0_
  6
CONTINUOUS
 62
    7
 10
126.36858993493775
 20
167.83333333333331
 11
109.15615228161641
 21
167.83333333333331
  0
LINE
  8
_8-0_
  6
CONTINUOUS
 62
    7
 10
126.31276331831828
 20
167.33333333333348
 11
109.15615228161641
 21
167.3333333333332
  0
LINE
  8
_8-0_
  6
CONTINUOUS
 62
    7
 10
126.26709490046551
 20
166.8333333333328
 11
109.15615228161641
 21
166.83333333333309
  0
LINE
  8
_8-0_
  6
CONTINUOUS
 62
    7
 10
126.231528896123
 20
166.33333333333297
 11
109.15615228161641
 21
166.33333333333326
  0
LINE
  8
_8-0_
  6
CONTINUOUS
 62
    7
 10
126.20602214314033
 20
165.83333333333286
 11
109.15615228161641
 21
165.83333333333314
  0
LINE
  8
_8-0_
  6
CONTINUOUS
 62
    7
 10
126.19054383841387
 20
165.33333333333303
 11
109.15615228161641
 21
165.33333333333331
  0
LINE
  8
_8-0_
  6
CONTINUOUS
 62
    7
 10
126.18507535096398
 20
164.83333333333292
 11
109.15615228161641
 21
164.8333333333332
  0
LINE
  8
_8-0_
  6
CONTINUOUS
 62
    7
 10
126.18961010950159
 20
164.33333333333309
 11
109.15615228161641
 21
164.33333333333309
  0
LINE
  8
_8-0_
  6
CONTINUOUS
 62
    7
 10
126.20415356288049
 20
163.83333333333297
 11
109.15615228161641
 21
163.83333333333326
  0
LINE
  8
_8-0_
  6
CONTINUOUS
 62
    7
 10
126.22872321288185
 20
163.33333333333286
 11
109.15615228161641
 21
163.33333333333314
  0
LINE
  8
_8-0_
  6
CONTINUOUS
 62
    7
 10
126.26334871980134
 20
162.83333333333303
 11
109.15615228161641
 21
162.83333333333331
  0
LINE
  8
_8-0_
  6
CONTINUOUS
 62
    7
 10
126.30807208231943
 20
162.33333333333292
 11
109.15615228161641
 21
162.3333333333332
  0
LINE
  8
_8-0_
  6
CONTINUOUS
 62
    7
 10
126.36294789421925
 20
161.83333333333309
 11
109.15615228161641
 21
161.83333333333309
  0
LINE
  8
_8-0_
  6
CONTINUOUS
 62
    7
 10
126.42804368164491
 20
161.33333333333297
 11
109.15615228161641
 21
161.33333333333326
  0
LINE
  8
_8-0_
  6
CONTINUOUS
 62
    7
 10
126.50344032582154
 20
160.83333333333286
 11
109.15615228161641
 21
160.83333333333314
  0
LINE
  8
_8-0_
  6
CONTINUOUS
 62
    7
 10
126.58923257752804
 20
160.33333333333303
 11
109.15615228161641
 21
160.33333333333331
  0
LINE
  8
_8-0_
  6
CONTINUOUS
 62
    7
 10
126.68552967113044
 20
159.83333333333292
 11
109.15615228161641
 21
159.8333333333332
  0
LINE
  8
_8-0_
  6
CONTINUOUS
 62
    7
 10
126.79245604775758
 20
159.33333333333309
 11
109.15615228161641
 21
159.33333333333309
  0
LINE
  8
_8-0_
  6
CONTINUOUS
 62
    7
 10
126.91015219920814
 20
158.83333333333297
 11
109.15615228161641
 21
158.83333333333326
  0
LINE
  8
_8-0_
  6
CONTINUOUS
 62
    7
 10
127.03877564656295
 20
158.33333333333286
 11
109.15615228161641
 21
158.33333333333314
  0
LINE
  8
_8-0_
  6
CONTINUOUS
 62
    7
 10
127.17850207028846
 20
157.83333333333303
 11
109.15615228161641
 21
157.83333333333331
  0
LINE
  8
_8-0_
  6
CONTINUOUS
 62
    7
 10
127.32952661195725
 20
157.33333333333292
 11
109.15615228161641
 21
157.3333333333332
  0
LINE
  8
_8-0_
  6
CONTINUOUS
 62
    7
 10
199.15615228161641
 20
206.83333333333323
 11
109.15615228161641
 21
206.83333333333323
  0
LINE
  8
_8-0_
  6
CONTINUOUS
 62
    7
 10
198.6561522816163
 20
206.33333333333326
 11
109.15615228161641
 21
206.33333333333326
  0
LINE
  8
_8-0_
  6
CONTINUOUS
 62
    7
 10
198.15615228161676
 20
205.83333333333314
 11
109.15615228161641
 21
205.83333333333314
  0
LINE
  8
_8-0_
  6
CONTINUOUS
 62
    7
 10
197.65615228161664
 20
205.33333333333317
 11
109.15615228161641
 21
205.33333333333317
  0
LINE
  8
_8-0_
  6
CONTINUOUS
 62
    7
 10
197.15615228161653
 20
204.83333333333292
 11
109.15615228161641
 21
204.8333333333332
  0
LINE
  8
_8-0_
  6
CONTINUOUS
 62
    7
 10
196.65615228161641
 20
204.33333333333309
 11
109.15615228161641
 21
204.33333333333309
  0
LINE
  8
_8-0_
  6
CONTINUOUS
 62
    7
 10
196.15615228161687
 20
203.83333333333326
 11
109.15615228161641
 21
203.83333333333326
  0
LINE
  8
_8-0_
  6
CONTINUOUS
 62
    7
 10
195.65615228161619
 20
203.33333333333286
 11
109.15615228161641
 21
203.33333333333314
  0
LINE
  8
_8-0_
  6
CONTINUOUS
 62
    7
 10
195.15615228161664
 20
202.83333333333303
 11
109.15615228161641
 21
202.83333333333331
  0
LINE
  8
_8-0_
  6
CONTINUOUS
 62
    7
 10
194.65615228161653
 20
202.3333333333332
 11
109.15615228161641
 21
202.3333333333332
  0
LINE
  8
_8-0_
  6
CONTINUOUS
 62
    7
 10
194.15615228161641
 20
201.83333333333309
 11
109.15615228161641
 21
201.83333333333309
  0
LINE
  8
_8-0_
  6
CONTINUOUS
 62
    7
 10
193.65615228161687
 20
201.33333333333297
 11
109.15615228161641
 21
201.33333333333326
  0
LINE
  8
_8-0_
  6
CONTINUOUS
 62
    7
 10
193.15615228161619
 20
200.83333333333286
 11
109.15615228161641
 21
200.83333333333314
  0
LINE
  8
_8-0_
  6
CONTINUOUS
 62
    7
 10
192.65615228161664
 20
200.33333333333331
 11
109.15615228161641
 21
200.33333333333331
  0
LINE
  8
_8-0_
  6
CONTINUOUS
 62
    7
 10
192.15615228161653
 20
199.8333333333332
 11
109.15615228161641
 21
199.8333333333332
  0
LINE
  8
_8-0_
  6
CONTINUOUS
 62
    7
 10
191.65615228161641
 20
199.33333333333309
 11
109.15615228161641
 21
199.33333333333309
  0
LINE
  8
_8-0_
  6
CONTINUOUS
 62
    7
 10
191.1561522816163
 20
198.83333333333297
 11
109.15615228161641
 21
198.83333333333326
  0
LINE
  8
_8-0_
  6
CONTINUOUS
 62
    7
 10
190.65615228161619
 20
198.33333333333314
 11
109.15615228161641
 21
198.33333333333314
  0
LINE
  8
_8-0_
  6
CONTINUOUS
 62
    7
 10
190.15615228161664
 20
197.83333333333331
 11
109.15615228161641
 21
197.83333333333331
  0
LINE
  8
_8-0_
  6
CONTINUOUS
 62
    7
 10
189.65615228161653
 20
197.33333333333292
 11
109.15615228161641
 21
197.3333333333332
  0
LINE
  8
_8-0_
  6
CONTINUOUS
 62
    7
 10
189.15615228161641
 20
196.83333333333309
 11
109.15615228161641
 21
196.83333333333309
  0
LINE
  8
_8-0_
  6
CONTINUOUS
 62
    7
 10
188.65615228161687
 20
196.33333333333326
 11
109.15615228161641
 21
196.33333333333326
  0
LINE
  8
_8-0_
  6
CONTINUOUS
 62
    7
 10
188.15615228161676
 20
195.83333333333314
 11
109.15615228161641
 21
195.83333333333314
  0
LINE
  8
_8-0_
  6
CONTINUOUS
 62
    7
 10
187.65615228161664
 20
195.33333333333303
 11
109.15615228161641
 21
195.33333333333331
  0
LINE
  8
_8-0_
  6
CONTINUOUS
 62
    7
 10
187.15615228161653
 20
194.83333333333292
 11
109.15615228161641
 21
194.8333333333332
  0
LINE
  8
_8-0_
  6
CONTINUOUS
 62
    7
 10
186.65615228161641
 20
194.33333333333309
 11
109.15615228161641
 21
194.33333333333309
  0
LINE
  8
_8-0_
  6
CONTINUOUS
 62
    7
 10
186.1561522816163
 20
193.83333333333326
 11
109.15615228161641
 21
193.83333333333326
  0
LINE
  8
_8-0_
  6
CONTINUOUS
 62
    7
 10
185.65615228161676
 20
193.33333333333286
 11
109.15615228161641
 21
193.33333333333314
  0
LINE
  8
_8-0_
  6
CONTINUOUS
 62
    7
 10
185.15615228161664
 20
192.83333333333303
 11
109.15615228161641
 21
192.83333333333331
  0
LINE
  8
_8-0_
  6
CONTINUOUS
 62
    7
 10
184.65615228161653
 20
192.33333333333292
 11
109.15615228161641
 21
192.3333333333332
  0
LINE
  8
_8-0_
  6
CONTINUOUS
 62
    7
 10
184.15615228161641
 20
191.83333333333309
 11
109.15615228161641
 21
191.83333333333309
  0
LINE
  8
_8-0_
  6
CONTINUOUS
 62
    7
 10
183.6561522816163
 20
191.33333333333297
 11
109.15615228161641
 21
191.33333333333326
  0
LINE
  8
_8-0_
  6
CONTINUOUS
 62
    7
 10
183.15615228161619
 20
190.83333333333286
 11
109.15615228161641
 21
190.83333333333314
  0
LINE
  8
_8-0_
  6
CONTINUOUS
 62
    7
 10
182.65615228161664
 20
190.33333333333303
 11
109.15615228161641
 21
190.33333333333331
  0
LINE
  8
_8-0_
  6
CONTINUOUS
 62
    7
 10
182.15615228161653
 20
189.8333333333332
 11
109.15615228161641
 21
189.8333333333332
  0
LINE
  8
_8-0_
  6
CONTINUOUS
 62
    7
 10
181.65615228161641
 20
189.33333333333309
 11
156.00931077856842
 21
189.33333333333309
  0
LINE
  8
_8-0_
  6
CONTINUOUS
 62
    7
 10
146.34966045133012
 20
189.33333333333309
 11
109.15615228161641
 21
189.33333333333309
  0
LINE
  8
_8-0_
  6
CONTINUOUS
 62
    7
 10
181.15615228161687
 20
188.83333333333297
 11
158.07880039574229
 21
188.83333333333326
  0
LINE
  8
_8-0_
  6
CONTINUOUS
 62
    7
 10
144.28017083415739
 20
188.83333333333326
 11
109.15615228161641
 21
188.83333333333326
  0
LINE
  8
_8-0_
  6
CONTINUOUS
 62
    7
 10
180.65615228161619
 20
188.33333333333286
 11
159.6277918225752
 21
188.33333333333286
  0
LINE
  8
_8-0_
  6
CONTINUOUS
 62
    7
 10
142.73117940732391
 20
188.33333333333286
 11
109.15615228161641
 21
188.33333333333314
  0
LINE
  8
_8-0_
  6
CONTINUOUS
 62
    7
 10
180.15615228161664
 20
187.83333333333331
 11
160.90816543860171
 21
187.83333333333303
  0
LINE
  8
_8-0_
  6
CONTINUOUS
 62
    7
 10
141.4508057912974
 20
187.83333333333303
 11
109.15615228161641
 21
187.83333333333331
  0
LINE
  8
_8-0_
  6
CONTINUOUS
 62
    7
 10
179.65615228161653
 20
187.3333333333332
 11
162.0155616780113
 21
187.3333333333332
  0
LINE
  8
_8-0_
  6
CONTINUOUS
 62
    7
 10
140.34340955188782
 20
187.3333333333332
 11
109.15615228161641
 21
187.3333333333332
  0
LINE
  8
_8-0_
  6
CONTINUOUS
 62
    7
 10
179.15615228161641
 20
186.83333333333309
 11
162.99870207704259
 21
186.83333333333309
  0
LINE
  8
_8-0_
  6
CONTINUOUS
 62
    7
 10
139.36026915285709
 20
186.83333333333309
 11
109.15615228161641
 21
186.83333333333309
  0
LINE
  8
_8-0_
  6
CONTINUOUS
 62
    7
 10
178.6561522816163
 20
186.33333333333297
 11
163.88646051502462
 21
186.33333333333326
  0
LINE
  8
_8-0_
  6
CONTINUOUS
 62
    7
 10
138.47251071487506
 20
186.33333333333326
 11
109.15615228161641
 21
186.33333333333326
  0
LINE
  8
_8-0_
  6
CONTINUOUS
 62
    7
 10
178.15615228161619
 20
185.83333333333314
 11
164.69764171866643
 21
185.83333333333286
  0
LINE
  8
_8-0_
  6
CONTINUOUS
 62
    7
 10
137.66132951123268
 20
185.83333333333286
 11
109.15615228161641
 21
185.83333333333314
  0
LINE
  8
_8-0_
  6
CONTINUOUS
 62
    7
 10
177.65615228161664
 20
185.33333333333331
 11
165.44531464020451
 21
185.33333333333303
  0
LINE
  8
_8-0_
  6
CONTINUOUS
 62
    7
 10
136.9136565896946
 20
185.33333333333303
 11
109.15615228161641
 21
185.33333333333331
  0
LINE
  8
_8-0_
  6
CONTINUOUS
 62
    7
 10
177.15615228161653
 20
184.83333333333292
 11
166.13900469515841
 21
184.8333333333332
  0
LINE
  8
_8-0_
  6
CONTINUOUS
 62
    7
 10
136.21996653474071
 20
184.8333333333332
 11
109.15615228161641
 21
184.8333333333332
  0
LINE
  8
_8-0_
  6
CONTINUOUS
 62
    7
 10
176.65615228161698
 20
184.33333333333309
 11
166.78591199783625
 21
184.33333333333309
  0
LINE
  8
_8-0_
  6
CONTINUOUS
 62
    7
 10
135.57305923206286
 20
184.33333333333309
 11
109.15615228161641
 21
184.33333333333309
  0
LINE
  8
_8-0_
  6
CONTINUOUS
 62
    7
 10
176.1561522816163
 20
183.83333333333326
 11
167.39163777861393
 21
183.83333333333297
  0
LINE
  8
_8-0_
  6
CONTINUOUS
 62
    7
 10
134.96733345128575
 20
183.83333333333297
 11
109.15615228161641
 21
183.83333333333326
  0
LINE
  8
_8-0_
  6
CONTINUOUS
 62
    7
 10
175.65615228161676
 20
183.33333333333314
 11
167.96064204444349
 21
183.33333333333286
  0
LINE
  8
_8-0_
  6
CONTINUOUS
 62
    7
 10
134.39832918545619
 20
183.33333333333286
 11
109.15615228161641
 21
183.33333333333314
  0
LINE
  8
_8-0_
  6
CONTINUOUS
 62
    7
 10
175.15615228161607
 20
182.83333333333303
 11
168.49654496243886
 21
182.83333333333275
  0
LINE
  8
_8-0_
  6
CONTINUOUS
 62
    7
 10
133.86242626746025
 20
182.83333333333303
 11
109.15615228161641
 21
182.83333333333331
  0
LINE
  8
_8-0_
  6
CONTINUOUS
 62
    7
 10
174.65615228161653
 20
182.33333333333292
 11
169.00233268767636
 21
182.33333333333263
  0
LINE
  8
_8-0_
  6
CONTINUOUS
 62
    7
 10
133.35663854222275
 20
182.33333333333292
 11
109.15615228161641
 21
182.3333333333332
  0
LINE
  8
_8-0_
  6
CONTINUOUS
 62
    7
 10
174.15615228161698
 20
181.83333333333309
 11
169.48050228373404
 21
181.83333333333309
  0
LINE
  8
_8-0_
  6
CONTINUOUS
 62
    7
 10
132.87846894616507
 20
181.83333333333309
 11
109.15615228161641
 21
181.83333333333309
  0
LINE
  8
_8-0_
  6
CONTINUOUS
 62
    7
 10
173.6561522816163
 20
181.33333333333326
 11
169.9331664388427
 21
181.33333333333326
  0
LINE
  8
_8-0_
  6
CONTINUOUS
 62
    7
 10
132.42580479105698
 20
181.33333333333326
 11
109.15615228161641
 21
181.33333333333326
  0
LINE
  8
_8-0_
  6
CONTINUOUS
 62
    7
 10
173.15615228161676
 20
180.83333333333286
 11
170.36213083863515
 21
180.83333333333286
  0
LINE
  8
_8-0_
  6
CONTINUOUS
 62
    7
 10
131.99684039126396
 20
180.83333333333314
 11
109.15615228161641
 21
180.83333333333314
  0
LINE
  8
_8-0_
  6
CONTINUOUS
 62
    7
 10
172.65615228161607
 20
180.33333333333303
 11
170.76895245586002
 21
180.33333333333303
  0
LINE
  8
_8-0_
  6
CONTINUOUS
 62
    7
 10
131.59001877403909
 20
180.33333333333331
 11
109.15615228161641
 21
180.33333333333331
  0
LINE
  8
_8-0_
  6
CONTINUOUS
 62
    7
 10
172.15615228161653
 20
179.8333333333332
 11
171.15498421809946
 21
179.8333333333332
  0
LINE
  8
_8-0_
  6
CONTINUOUS
 62
    7
 10
131.20398701179965
 20
179.8333333333332
 11
109.15615228161641
 21
179.8333333333332
  0
LINE
  8
_8-0_
  6
CONTINUOUS
 62
    7
 10
171.65615228161698
 20
179.33333333333309
 11
171.52140975643135
 21
179.33333333333309
  0
LINE
  8
_8-0_
  6
CONTINUOUS
 62
    7
 10
130.83756147346833
 20
179.33333333333309
 11
109.15615228161641
 21
179.33333333333309
  0
LINE
  8
_8-0_
  6
CONTINUOUS
 62
    7
 10
130.48970042729934
 20
178.83333333333297
 11
109.15615228161641
 21
178.83333333333326
  0
LINE
  8
_8-0_
  6
CONTINUOUS
 62
    7
 10
130.15948217906839
 20
178.33333333333286
 11
109.15615228161641
 21
178.33333333333314
  0
LINE
  8
_8-0_
  6
CONTINUOUS
 62
    7
 10
129.84608743796457
 20
177.83333333333303
 11
109.15615228161641
 21
177.83333333333331
  0
LINE
  8
_8-0_
  6
CONTINUOUS
 62
    7
 10
129.54878495336345
 20
177.33333333333292
 11
109.15615228161641
 21
177.3333333333332
  0
LINE
  8
_8-0_
  6
CONTINUOUS
 62
    7
 10
129.26691971215178
 20
176.83333333333309
 11
109.15615228161641
 21
176.83333333333309
  0
LINE
  8
_8-0_
  6
CONTINUOUS
 62
    7
 10
128.99990316221249
 20
176.33333333333354
 11
109.15615228161641
 21
176.33333333333326
  0
LINE
  8
_8-0_
  6
CONTINUOUS
 62
    7
 10
128.74720505520429
 20
175.83333333333343
 11
109.15615228161641
 21
175.83333333333314
  0
LINE
  8
_8-0_
  6
CONTINUOUS
 62
    7
 10
128.50834659538464
 20
175.33333333333331
 11
109.15615228161641
 21
175.33333333333331
  0
LINE
  8
_8-0_
  6
CONTINUOUS
 62
    7
 10
128.28289465083913
 20
174.83333333333292
 11
109.15615228161641
 21
174.8333333333332
  0
LINE
  8
_8-0_
  6
CONTINUOUS
 62
    7
 10
128.07045683589592
 20
174.33333333333309
 11
109.15615228161641
 21
174.33333333333309
  0
LINE
  8
_8-0_
  6
CONTINUOUS
 62
    7
 10
127.87067731326999
 20
173.83333333333354
 11
109.15615228161641
 21
173.83333333333326
  0
LINE
  8
_8-0_
  6
CONTINUOUS
 62
    7
 10
127.68323319508966
 20
173.33333333333343
 11
109.15615228161641
 21
173.33333333333314
  0
LINE
  8
_8-0_
  6
CONTINUOUS
 62
    7
 10
127.50783144564593
 20
172.83333333333331
 11
109.15615228161641
 21
172.83333333333331
  0
LINE
  8
_8-0_
  6
CONTINUOUS
 62
    7
 10
127.34420620722176
 20
172.33333333333292
 11
109.15615228161641
 21
172.3333333333332
  0
LINE
  8
_8-0_
  6
CONTINUOUS
 62
    7
 10
127.19211648497264
 20
171.83333333333309
 11
109.15615228161641
 21
171.83333333333309
  0
LINE
  8
_8-0_
  6
CONTINUOUS
 62
    7
 10
127.05134413842643
 20
171.33333333333297
 11
109.15615228161641
 21
171.33333333333326
  0
LINE
  8
_8-0_
  6
CONTINUOUS
 62
    7
 10
126.92169213647219
 20
170.83333333333343
 11
109.15615228161641
 21
170.83333333333314
  0
LINE
  8
_8-0_
  6
CONTINUOUS
 62
    7
 10
126.80298304017981
 20
170.33333333333331
 11
109.15615228161641
 21
170.33333333333331
  0
LINE
  8
_8-0_
  6
CONTINUOUS
 62
    7
 10
126.69505768389286
 20
169.83333333333348
 11
109.15615228161641
 21
169.8333333333332
  0
LINE
  8
_8-0_
  6
CONTINUOUS
 62
    7
 10
126.59777403002465
 20
169.33333333333309
 11
109.15615228161641
 21
169.33333333333309
  0
LINE
  8
_8-0_
  6
CONTINUOUS
 62
    7
 10
126.51100617705595
 20
168.83333333333297
 11
109.15615228161641
 21
168.83333333333326
  0
LINE
  8
_8-0_
  6
CONTINUOUS
 62
    7
 10
126.43464350369129
 20
168.33333333333343
 11
109.15615228161641
 21
168.33333333333314
  0
LINE
  8
_8-0_
  6
CONTINUOUS
 62
    7
 10
126.36858993493775
 20
167.83333333333331
 11
109.15615228161641
 21
167.83333333333331
  0
LINE
  8
_8-0_
  6
CONTINUOUS
 62
    7
 10
126.31276331831828
 20
167.33333333333348
 11
109.15615228161641
 21
167.3333333333332
  0
LINE
  8
_8-0_
  6
CONTINUOUS
 62
    7
 10
126.26709490046551
 20
166.8333333333328
 11
109.15615228161641
 21
166.83333333333309
  0
LINE
  8
_8-0_
  6
CONTINUOUS
 62
    7
 10
126.231528896123
 20
166.33333333333297
 11
109.15615228161641
 21
166.33333333333326
  0
LINE
  8
_8-0_
  6
CONTINUOUS
 62
    7
 10
126.20602214314033
 20
165.83333333333286
 11
109.15615228161641
 21
165.83333333333314
  0
LINE
  8
_8-0_
  6
CONTINUOUS
 62
    7
 10
126.19054383841387
 20
165.33333333333303
 11
109.15615228161641
 21
165.33333333333331
  0
LINE
  8
_8-0_
  6
CONTINUOUS
 62
    7
 10
126.18507535096398
 20
164.83333333333292
 11
109.15615228161641
 21
164.8333333333332
  0
LINE
  8
_8-0_
  6
CONTINUOUS
 62
    7
 10
126.18961010950159
 20
164.33333333333309
 11
109.15615228161641
 21
164.33333333333309
  0
LINE
  8
_8-0_
  6
CONTINUOUS
 62
    7
 10
126.20415356288049
 20
163.83333333333297
 11
109.15615228161641
 21
163.83333333333326
  0
LINE
  8
_8-0_
  6
CONTINUOUS
 62
    7
 10
126.22872321288185
 20
163.33333333333286
 11
109.15615228161641
 21
163.33333333333314
  0
LINE
  8
_8-0_
  6
CONTINUOUS
 62
    7
 10
126.26334871980134
 20
162.83333333333303
 11
109.15615228161641
 21
162.83333333333331
  0
LINE
  8
_8-0_
  6
CONTINUOUS
 62
    7
 10
126.30807208231943
 20
162.33333333333292
 11
109.15615228161641
 21
162.3333333333332
  0
LINE
  8
_8-0_
  6
CONTINUOUS
 62
    7
 10
126.36294789421925
 20
161.83333333333309
 11
109.15615228161641
 21
161.83333333333309
  0
LINE
  8
_8-0_
  6
CONTINUOUS
 62
    7
 10
126.42804368164491
 20
161.33333333333297
 11
109.15615228161641
 21
161.33333333333326
  0
LINE
  8
_8-0_
  6
CONTINUOUS
 62
    7
 10
126.50344032582154
 20
160.83333333333286
 11
109.15615228161641
 21
160.83333333333314
  0
LINE
  8
_8-0_
  6
CONTINUOUS
 62
    7
 10
126.58923257752804
 20
160.33333333333303
 11
109.15615228161641
 21
160.33333333333331
  0
LINE
  8
_8-0_
  6
CONTINUOUS
 62
    7
 10
126.68552967113044
 20
159.83333333333292
 11
109.15615228161641
 21
159.8333333333332
  0
LINE
  8
_8-0_
  6
CONTINUOUS
 62
    7
 10
126.79245604775758
 20
159.33333333333309
 11
109.15615228161641
 21
159.33333333333309
  0
LINE
  8
_8-0_
  6
CONTINUOUS
 62
    7
 10
126.91015219920814
 20
158.83333333333297
 11
109.15615228161641
 21
158.83333333333326
  0
LINE
  8
_8-0_
  6
CONTINUOUS
 62
    7
 10
127.03877564656295
 20
158.33333333333286
 11
109.15615228161641
 21
158.33333333333314
  0
LINE
  8
_8-0_
  6
CONTINUOUS
 62
    7
 10
127.17850207028846
 20
157.83333333333303
 11
109.15615228161641
 21
157.83333333333331
  0
LINE
  8
_8-0_
  6
CONTINUOUS
 62
    7
 10
127.32952661195725
 20
157.33333333333292
 11
109.15615228161641
 21
157.3333333333332
  0
LINE
  8
_8-0_
  6
CONTINUOUS
 62
    7
 10
127.49206537175382
 20
156.83333333333309
 11
109.15615228161641
 21
156.83333333333309
  0
LINE
  8
_8-0_
  6
CONTINUOUS
 62
    7
 10
127.66635713082223
 20
156.33333333333297
 11
109.15615228161641
 21
156.33333333333326
  0
LINE
  8
_8-0_
  6
CONTINUOUS
 62
    7
 10
127.85266533347055
 20
155.83333333333286
 11
109.15615228161641
 21
155.83333333333314
  0
LINE
  8
_8-0_
  6
CONTINUOUS
 62
    7
 10
128.0512803716158
 20
155.33333333333303
 11
109.15615228161641
 21
155.33333333333331
  0
LINE
  8
_8-0_
  6
CONTINUOUS
 62
    7
 10
128.26252222293135
 20
154.83333333333292
 11
109.15615228161641
 21
154.8333333333332
  0
LINE
  8
_8-0_
  6
CONTINUOUS
 62
    7
 10
128.48674350553438
 20
154.33333333333309
 11
109.15615228161641
 21
154.33333333333309
  0
LINE
  8
_8-0_
  6
CONTINUOUS
 62
    7
 10
128.72433302633965
 20
153.83333333333297
 11
109.15615228161641
 21
153.83333333333326
  0
LINE
  8
_8-0_
  6
CONTINUOUS
 62
    7
 10
128.97571991831398
 20
153.33333333333286
 11
109.15615228161641
 21
153.33333333333314
  0
LINE
  8
_8-0_
  6
CONTINUOUS
 62
    7
 10
129.2413784850163
 20
152.83333333333303
 11
109.15615228161641
 21
152.83333333333331
  0
LINE
  8
_8-0_
  6
CONTINUOUS
 62
    7
 10
129.52183390065329
 20
152.33333333333292
 11
109.15615228161641
 21
152.3333333333332
  0
LINE
  8
_8-0_
  6
CONTINUOUS
 62
    7
 10
129.81766895271107
 20
151.83333333333309
 11
109.15615228161641
 21
151.83333333333309
  0
LINE
  8
_8-0_
  6
CONTINUOUS
 62
    7
 10
130.12953206525196
 20
151.33333333333297
 11
109.15615228161641
 21
151.33333333333326
  0
LINE
  8
_8-0_
  6
CONTINUOUS
 62
    7
 10
130.45814690873328
 20
150.83333333333286
 11
109.15615228161641
 21
150.83333333333314
  0
LINE
  8
_8-0_
  6
CONTINUOUS
 62
    7
 10
130.80432399323229
 20
150.33333333333303
 11
109.15615228161641
 21
150.33333333333331
  0
LINE
  8
_8-0_
  6
CONTINUOUS
 62
    7
 10
131.16897476578799
 20
149.83333333333292
 11
109.15615228161641
 21
149.8333333333332
  0
LINE
  8
_8-0_
  6
CONTINUOUS
 62
    7
 10
131.55312890317703
 20
149.33333333333309
 11
109.15615228161641
 21
149.33333333333309
  0
LINE
  8
_8-0_
  6
CONTINUOUS
 62
    7
 10
131.95795573018017
 20
148.83333333333297
 11
109.15615228161641
 21
148.83333333333326
  0
LINE
  8
_8-0_
  6
CONTINUOUS
 62
    7
 10
132.38479103258385
 20
148.33333333333286
 11
109.15615228161641
 21
148.33333333333314
  0
LINE
  8
_8-0_
  6
CONTINUOUS
 62
    7
 10
132.83517102492624
 20
147.83333333333303
 11
109.15615228161641
 21
147.83333333333331
  0
LINE
  8
_8-0_
  6
CONTINUOUS
 62
    7
 10
133.31087595691827
 20
147.33333333333292
 11
109.15615228161641
 21
147.3333333333332
  0
LINE
  8
_8-0_
  6
CONTINUOUS
 62
    7
 10
133.81398693381698
 20
146.83333333333309
 11
109.15615228161641
 21
146.83333333333309
  0
LINE
  8
_8-0_
  6
CONTINUOUS
 62
    7
 10
134.3469612119452
 20
146.33333333333297
 11
109.15615228161641
 21
146.33333333333326
  0
LINE
  8
_8-0_
  6
CONTINUOUS
 62
    7
 10
134.91273390752269
 20
145.83333333333286
 11
109.15615228161641
 21
145.83333333333314
  0
LINE
  8
_8-0_
  6
CONTINUOUS
 62
    7
 10
135.51485844273714
 20
145.33333333333303
 11
109.15615228161641
 21
145.33333333333331
  0
LINE
  8
_8-0_
  6
CONTINUOUS
 62
    7
 10
136.1577055014692
 20
144.83333333333292
 11
109.15615228161641
 21
144.8333333333332
  0
LINE
  8
_8-0_
  6
CONTINUOUS
 62
    7
 10
136.65615228161641
 20
144.33333333333309
 11
109.15615228161641
 21
144.33333333333309
  0
LINE
  8
_8-0_
  6
CONTINUOUS
 62
    7
 10
136.1561522816163
 20
143.83333333333297
 11
109.15615228161641
 21
143.83333333333326
  0
LINE
  8
_8-0_
  6
CONTINUOUS
 62
    7
 10
135.65615228161676
 20
143.33333333333314
 11
109.15615228161641
 21
143.33333333333314
  0
LINE
  8
_8-0_
  6
CONTINUOUS
 62
    7
 10
135.15615228161664
 20
142.83333333333331
 11
109.15615228161641
 21
142.83333333333331
  0
LINE
  8
_8-0_
  6
CONTINUOUS
 62
    7
 10
134.65615228161653
 20
142.33333333333292
 11
109.15615228161641
 21
142.3333333333332
  0
LINE
  8
_8-0_
  6
CONTINUOUS
 62
    7
 10
134.15615228161641
 20
141.83333333333309
 11
109.15615228161641
 21
141.83333333333309
  0
LINE
  8
_8-0_
  6
CONTINUOUS
 62
    7
 10
133.6561522816163
 20
141.33333333333326
 11
109.15615228161641
 21
141.33333333333326
  0
LINE
  8
_8-0_
  6
CONTINUOUS
 62
    7
 10
133.15615228161676
 20
140.83333333333314
 11
109.15615228161641
 21
140.83333333333314
  0
LINE
  8
_8-0_
  6
CONTINUOUS
 62
    7
 10
132.65615228161607
 20
140.33333333333303
 11
109.15615228161641
 21
140.33333333333331
  0
LINE
  8
_8-0_
  6
CONTINUOUS
 62
    7
 10
132.15615228161653
 20
139.83333333333292
 11
109.15615228161641
 21
139.8333333333332
  0
LINE
  8
_8-0_
  6
CONTINUOUS
 62
    7
 10
131.65615228161641
 20
139.33333333333309
 11
109.15615228161641
 21
139.33333333333309
  0
LINE
  8
_8-0_
  6
CONTINUOUS
 62
    7
 10
131.1561522816163
 20
138.83333333333326
 11
109.15615228161641
 21
138.83333333333326
  0
LINE
  8
_8-0_
  6
CONTINUOUS
 62
    7
 10
130.65615228161619
 20
138.33333333333286
 11
109.15615228161641
 21
138.33333333333314
  0
LINE
  8
_8-0_
  6
CONTINUOUS
 62
    7
 10
130.15615228161607
 20
137.83333333333303
 11
109.15615228161641
 21
137.83333333333331
  0
LINE
  8
_8-0_
  6
CONTINUOUS
 62
    7
 10
129.65615228161653
 20
137.3333333333332
 11
109.15615228161641
 21
137.3333333333332
  0
LINE
  8
_8-0_
  6
CONTINUOUS
 62
    7
 10
129.15615228161641
 20
136.83333333333309
 11
109.15615228161641
 21
136.83333333333309
  0
LINE
  8
_8-0_
  6
CONTINUOUS
 62
    7
 10
128.6561522816163
 20
136.33333333333297
 11
109.15615228161641
 21
136.33333333333326
  0
LINE
  8
_8-0_
  6
CONTINUOUS
 62
    7
 10
128.15615228161619
 20
135.83333333333286
 11
109.15615228161641
 21
135.83333333333314
  0
LINE
  8
_8-0_
  6
CONTINUOUS
 62
    7
 10
127.65615228161664
 20
135.33333333333331
 11
109.15615228161641
 21
135.33333333333331
  0
LINE
  8
_8-0_
  6
CONTINUOUS
 62
    7
 10
127.15615228161653
 20
134.8333333333332
 11
109.15615228161641
 21
134.8333333333332
  0
LINE
  8
_8-0_
  6
CONTINUOUS
 62
    7
 10
126.65615228161641
 20
134.33333333333309
 11
109.15615228161641
 21
134.33333333333309
  0
LINE
  8
_8-0_
  6
CONTINUOUS
 62
    7
 10
126.1561522816163
 20
133.83333333333297
 11
109.15615228161641
 21
133.83333333333326
  0
LINE
  8
_8-0_
  6
CONTINUOUS
 62
    7
 10
125.65615228161619
 20
133.33333333333314
 11
109.15615228161641
 21
133.33333333333314
  0
LINE
  8
_8-0_
  6
CONTINUOUS
 62
    7
 10
125.15615228161664
 20
132.83333333333331
 11
109.15615228161641
 21
132.83333333333331
  0
LINE
  8
_8-0_
  6
CONTINUOUS
 62
    7
 10
124.65615228161653
 20
132.33333333333292
 11
109.15615228161641
 21
132.3333333333332
  0
LINE
  8
_8-0_
  6
CONTINUOUS
 62
    7
 10
124.15615228161641
 20
131.83333333333309
 11
109.15615228161641
 21
131.83333333333309
  0
LINE
  8
_8-0_
  6
CONTINUOUS
 62
    7
 10
127.49206537175382
 20
156.83333333333309
 11
109.15615228161641
 21
156.83333333333309
  0
LINE
  8
_8-0_
  6
CONTINUOUS
 62
    7
 10
127.66635713082223
 20
156.33333333333297
 11
109.15615228161641
 21
156.33333333333326
  0
LINE
  8
_8-0_
  6
CONTINUOUS
 62
    7
 10
127.85266533347055
 20
155.83333333333286
 11
109.15615228161641
 21
155.83333333333314
  0
LINE
  8
_8-0_
  6
CONTINUOUS
 62
    7
 10
128.0512803716158
 20
155.33333333333303
 11
109.15615228161641
 21
155.33333333333331
  0
LINE
  8
_8-0_
  6
CONTINUOUS
 62
    7
 10
128.26252222293135
 20
154.83333333333292
 11
109.15615228161641
 21
154.8333333333332
  0
LINE
  8
_8-0_
  6
CONTINUOUS
 62
    7
 10
128.48674350553438
 20
154.33333333333309
 11
109.15615228161641
 21
154.33333333333309
  0
LINE
  8
_8-0_
  6
CONTINUOUS
 62
    7
 10
128.72433302633965
 20
153.83333333333297
 11
109.15615228161641
 21
153.83333333333326
  0
LINE
  8
_8-0_
  6
CONTINUOUS
 62
    7
 10
128.97571991831398
 20
153.33333333333286
 11
109.15615228161641
 21
153.33333333333314
  0
LINE
  8
_8-0_
  6
CONTINUOUS
 62
    7
 10
129.2413784850163
 20
152.83333333333303
 11
109.15615228161641
 21
152.83333333333331
  0
LINE
  8
_8-0_
  6
CONTINUOUS
 62
    7
 10
129.52183390065329
 20
152.33333333333292
 11
109.15615228161641
 21
152.3333333333332
  0
LINE
  8
_8-0_
  6
CONTINUOUS
 62
    7
 10
129.81766895271107
 20
151.83333333333309
 11
109.15615228161641
 21
151.83333333333309
  0
LINE
  8
_8-0_
  6
CONTINUOUS
 62
    7
 10
130.12953206525196
 20
151.33333333333297
 11
109.15615228161641
 21
151.33333333333326
  0
LINE
  8
_8-0_
  6
CONTINUOUS
 62
    7
 10
130.45814690873328
 20
150.83333333333286
 11
109.15615228161641
 21
150.83333333333314
  0
LINE
  8
_8-0_
  6
CONTINUOUS
 62
    7
 10
130.80432399323229
 20
150.33333333333303
 11
109.15615228161641
 21
150.33333333333331
  0
LINE
  8
_8-0_
  6
CONTINUOUS
 62
    7
 10
131.16897476578799
 20
149.83333333333292
 11
109.15615228161641
 21
149.8333333333332
  0
LINE
  8
_8-0_
  6
CONTINUOUS
 62
    7
 10
131.55312890317703
 20
149.33333333333309
 11
109.15615228161641
 21
149.33333333333309
  0
LINE
  8
_8-0_
  6
CONTINUOUS
 62
    7
 10
131.95795573018017
 20
148.83333333333297
 11
109.15615228161641
 21
148.83333333333326
  0
LINE
  8
_8-0_
  6
CONTINUOUS
 62
    7
 10
132.38479103258385
 20
148.33333333333286
 11
109.15615228161641
 21
148.33333333333314
  0
LINE
  8
_8-0_
  6
CONTINUOUS
 62
    7
 10
132.83517102492624
 20
147.83333333333303
 11
109.15615228161641
 21
147.83333333333331
  0
LINE
  8
_8-0_
  6
CONTINUOUS
 62
    7
 10
133.31087595691827
 20
147.33333333333292
 11
109.15615228161641
 21
147.3333333333332
  0
LINE
  8
_8-0_
  6
CONTINUOUS
 62
    7
 10
133.81398693381698
 20
146.83333333333309
 11
109.15615228161641
 21
146.83333333333309
  0
LINE
  8
_8-0_
  6
CONTINUOUS
 62
    7
 10
134.3469612119452
 20
146.33333333333297
 11
109.15615228161641
 21
146.33333333333326
  0
LINE
  8
_8-0_
  6
CONTINUOUS
 62
    7
 10
134.91273390752269
 20
145.83333333333286
 11
109.15615228161641
 21
145.83333333333314
  0
LINE
  8
_8-0_
  6
CONTINUOUS
 62
    7
 10
135.51485844273714
 20
145.33333333333303
 11
109.15615228161641
 21
145.33333333333331
  0
LINE
  8
_8-0_
  6
CONTINUOUS
 62
    7
 10
136.1577055014692
 20
144.83333333333292
 11
109.15615228161641
 21
144.8333333333332
  0
LINE
  8
_8-0_
  6
CONTINUOUS
 62
    7
 10
136.65615228161641
 20
144.33333333333309
 11
109.15615228161641
 21
144.33333333333309
  0
LINE
  8
_8-0_
  6
CONTINUOUS
 62
    7
 10
136.1561522816163
 20
143.83333333333297
 11
109.15615228161641
 21
143.83333333333326
  0
LINE
  8
_8-0_
  6
CONTINUOUS
 62
    7
 10
135.65615228161676
 20
143.33333333333314
 11
109.15615228161641
 21
143.33333333333314
  0
LINE
  8
_8-0_
  6
CONTINUOUS
 62
    7
 10
135.15615228161664
 20
142.83333333333331
 11
109.15615228161641
 21
142.83333333333331
  0
LINE
  8
_8-0_
  6
CONTINUOUS
 62
    7
 10
134.65615228161653
 20
142.33333333333292
 11
109.15615228161641
 21
142.3333333333332
  0
LINE
  8
_8-0_
  6
CONTINUOUS
 62
    7
 10
134.15615228161641
 20
141.83333333333309
 11
109.15615228161641
 21
141.83333333333309
  0
LINE
  8
_8-0_
  6
CONTINUOUS
 62
    7
 10
133.6561522816163
 20
141.33333333333326
 11
109.15615228161641
 21
141.33333333333326
  0
LINE
  8
_8-0_
  6
CONTINUOUS
 62
    7
 10
133.15615228161676
 20
140.83333333333314
 11
109.15615228161641
 21
140.83333333333314
  0
LINE
  8
_8-0_
  6
CONTINUOUS
 62
    7
 10
132.65615228161607
 20
140.33333333333303
 11
109.15615228161641
 21
140.33333333333331
  0
LINE
  8
_8-0_
  6
CONTINUOUS
 62
    7
 10
132.15615228161653
 20
139.83333333333292
 11
109.15615228161641
 21
139.8333333333332
  0
LINE
  8
_8-0_
  6
CONTINUOUS
 62
    7
 10
131.65615228161641
 20
139.33333333333309
 11
109.15615228161641
 21
139.33333333333309
  0
LINE
  8
_8-0_
  6
CONTINUOUS
 62
    7
 10
131.1561522816163
 20
138.83333333333326
 11
109.15615228161641
 21
138.83333333333326
  0
LINE
  8
_8-0_
  6
CONTINUOUS
 62
    7
 10
130.65615228161619
 20
138.33333333333286
 11
109.15615228161641
 21
138.33333333333314
  0
LINE
  8
_8-0_
  6
CONTINUOUS
 62
    7
 10
130.15615228161607
 20
137.83333333333303
 11
109.15615228161641
 21
137.83333333333331
  0
LINE
  8
_8-0_
  6
CONTINUOUS
 62
    7
 10
129.65615228161653
 20
137.3333333333332
 11
109.15615228161641
 21
137.3333333333332
  0
LINE
  8
_8-0_
  6
CONTINUOUS
 62
    7
 10
129.15615228161641
 20
136.83333333333309
 11
109.15615228161641
 21
136.83333333333309
  0
LINE
  8
_8-0_
  6
CONTINUOUS
 62
    7
 10
128.6561522816163
 20
136.33333333333297
 11
109.15615228161641
 21
136.33333333333326
  0
LINE
  8
_8-0_
  6
CONTINUOUS
 62
    7
 10
128.15615228161619
 20
135.83333333333286
 11
109.15615228161641
 21
135.83333333333314
  0
LINE
  8
_8-0_
  6
CONTINUOUS
 62
    7
 10
127.65615228161664
 20
135.33333333333331
 11
109.15615228161641
 21
135.33333333333331
  0
LINE
  8
_8-0_
  6
CONTINUOUS
 62
    7
 10
127.15615228161653
 20
134.8333333333332
 11
109.15615228161641
 21
134.8333333333332
  0
LINE
  8
_8-0_
  6
CONTINUOUS
 62
    7
 10
126.65615228161641
 20
134.33333333333309
 11
109.15615228161641
 21
134.33333333333309
  0
LINE
  8
_8-0_
  6
CONTINUOUS
 62
    7
 10
126.1561522816163
 20
133.83333333333297
 11
109.15615228161641
 21
133.83333333333326
  0
LINE
  8
_8-0_
  6
CONTINUOUS
 62
    7
 10
125.65615228161619
 20
133.33333333333314
 11
109.15615228161641
 21
133.33333333333314
  0
LINE
  8
_8-0_
  6
CONTINUOUS
 62
    7
 10
125.15615228161664
 20
132.83333333333331
 11
109.15615228161641
 21
132.83333333333331
  0
LINE
  8
_8-0_
  6
CONTINUOUS
 62
    7
 10
124.65615228161653
 20
132.33333333333292
 11
109.15615228161641
 21
132.3333333333332
  0
LINE
  8
_8-0_
  6
CONTINUOUS
 62
    7
 10
124.15615228161641
 20
131.83333333333309
 11
109.15615228161641
 21
131.83333333333309
  0
LINE
  8
_8-0_
  6
CONTINUOUS
 62
    7
 10
127.49206537175382
 20
156.83333333333309
 11
109.15615228161641
 21
156.83333333333309
  0
LINE
  8
_8-0_
  6
CONTINUOUS
 62
    7
 10
127.66635713082223
 20
156.33333333333297
 11
109.15615228161641
 21
156.33333333333326
  0
LINE
  8
_8-0_
  6
CONTINUOUS
 62
    7
 10
127.85266533347055
 20
155.83333333333286
 11
109.15615228161641
 21
155.83333333333314
  0
LINE
  8
_8-0_
  6
CONTINUOUS
 62
    7
 10
128.0512803716158
 20
155.33333333333303
 11
109.15615228161641
 21
155.33333333333331
  0
LINE
  8
_8-0_
  6
CONTINUOUS
 62
    7
 10
128.26252222293135
 20
154.83333333333292
 11
109.15615228161641
 21
154.8333333333332
  0
LINE
  8
_8-0_
  6
CONTINUOUS
 62
    7
 10
128.48674350553438
 20
154.33333333333309
 11
109.15615228161641
 21
154.33333333333309
  0
LINE
  8
_8-0_
  6
CONTINUOUS
 62
    7
 10
128.72433302633965
 20
153.83333333333297
 11
109.15615228161641
 21
153.83333333333326
  0
LINE
  8
_8-0_
  6
CONTINUOUS
 62
    7
 10
128.97571991831398
 20
153.33333333333286
 11
109.15615228161641
 21
153.33333333333314
  0
LINE
  8
_8-0_
  6
CONTINUOUS
 62
    7
 10
129.2413784850163
 20
152.83333333333303
 11
109.15615228161641
 21
152.83333333333331
  0
LINE
  8
_8-0_
  6
CONTINUOUS
 62
    7
 10
129.52183390065329
 20
152.33333333333292
 11
109.15615228161641
 21
152.3333333333332
  0
LINE
  8
_8-0_
  6
CONTINUOUS
 62
    7
 10
129.81766895271107
 20
151.83333333333309
 11
109.15615228161641
 21
151.83333333333309
  0
LINE
  8
_8-0_
  6
CONTINUOUS
 62
    7
 10
130.12953206525196
 20
151.33333333333297
 11
109.15615228161641
 21
151.33333333333326
  0
LINE
  8
_8-0_
  6
CONTINUOUS
 62
    7
 10
130.45814690873328
 20
150.83333333333286
 11
109.15615228161641
 21
150.83333333333314
  0
LINE
  8
_8-0_
  6
CONTINUOUS
 62
    7
 10
130.80432399323229
 20
150.33333333333303
 11
109.15615228161641
 21
150.33333333333331
  0
LINE
  8
_8-0_
  6
CONTINUOUS
 62
    7
 10
131.16897476578799
 20
149.83333333333292
 11
109.15615228161641
 21
149.8333333333332
  0
LINE
  8
_8-0_
  6
CONTINUOUS
 62
    7
 10
131.55312890317703
 20
149.33333333333309
 11
109.15615228161641
 21
149.33333333333309
  0
LINE
  8
_8-0_
  6
CONTINUOUS
 62
    7
 10
131.95795573018017
 20
148.83333333333297
 11
109.15615228161641
 21
148.83333333333326
  0
LINE
  8
_8-0_
  6
CONTINUOUS
 62
    7
 10
132.38479103258385
 20
148.33333333333286
 11
109.15615228161641
 21
148.33333333333314
  0
LINE
  8
_8-0_
  6
CONTINUOUS
 62
    7
 10
132.83517102492624
 20
147.83333333333303
 11
109.15615228161641
 21
147.83333333333331
  0
LINE
  8
_8-0_
  6
CONTINUOUS
 62
    7
 10
133.31087595691827
 20
147.33333333333292
 11
109.15615228161641
 21
147.3333333333332
  0
LINE
  8
_8-0_
  6
CONTINUOUS
 62
    7
 10
133.81398693381698
 20
146.83333333333309
 11
109.15615228161641
 21
146.83333333333309
  0
LINE
  8
_8-0_
  6
CONTINUOUS
 62
    7
 10
134.3469612119452
 20
146.33333333333297
 11
109.15615228161641
 21
146.33333333333326
  0
LINE
  8
_8-0_
  6
CONTINUOUS
 62
    7
 10
134.91273390752269
 20
145.83333333333286
 11
109.15615228161641
 21
145.83333333333314
  0
LINE
  8
_8-0_
  6
CONTINUOUS
 62
    7
 10
135.51485844273714
 20
145.33333333333303
 11
109.15615228161641
 21
145.33333333333331
  0
LINE
  8
_8-0_
  6
CONTINUOUS
 62
    7
 10
136.1577055014692
 20
144.83333333333292
 11
109.15615228161641
 21
144.8333333333332
  0
LINE
  8
_8-0_
  6
CONTINUOUS
 62
    7
 10
136.65615228161641
 20
144.33333333333309
 11
109.15615228161641
 21
144.33333333333309
  0
LINE
  8
_8-0_
  6
CONTINUOUS
 62
    7
 10
136.1561522816163
 20
143.83333333333297
 11
109.15615228161641
 21
143.83333333333326
  0
LINE
  8
_8-0_
  6
CONTINUOUS
 62
    7
 10
135.65615228161676
 20
143.33333333333314
 11
109.15615228161641
 21
143.33333333333314
  0
LINE
  8
_8-0_
  6
CONTINUOUS
 62
    7
 10
135.15615228161664
 20
142.83333333333331
 11
109.15615228161641
 21
142.83333333333331
  0
LINE
  8
_8-0_
  6
CONTINUOUS
 62
    7
 10
134.65615228161653
 20
142.33333333333292
 11
109.15615228161641
 21
142.3333333333332
  0
LINE
  8
_8-0_
  6
CONTINUOUS
 62
    7
 10
134.15615228161641
 20
141.83333333333309
 11
109.15615228161641
 21
141.83333333333309
  0
LINE
  8
_8-0_
  6
CONTINUOUS
 62
    7
 10
133.6561522816163
 20
141.33333333333326
 11
109.15615228161641
 21
141.33333333333326
  0
LINE
  8
_8-0_
  6
CONTINUOUS
 62
    7
 10
133.15615228161676
 20
140.83333333333314
 11
109.15615228161641
 21
140.83333333333314
  0
LINE
  8
_8-0_
  6
CONTINUOUS
 62
    7
 10
132.65615228161607
 20
140.33333333333303
 11
109.15615228161641
 21
140.33333333333331
  0
LINE
  8
_8-0_
  6
CONTINUOUS
 62
    7
 10
132.15615228161653
 20
139.83333333333292
 11
109.15615228161641
 21
139.8333333333332
  0
LINE
  8
_8-0_
  6
CONTINUOUS
 62
    7
 10
131.65615228161641
 20
139.33333333333309
 11
109.15615228161641
 21
139.33333333333309
  0
LINE
  8
_8-0_
  6
CONTINUOUS
 62
    7
 10
131.1561522816163
 20
138.83333333333326
 11
109.15615228161641
 21
138.83333333333326
  0
LINE
  8
_8-0_
  6
CONTINUOUS
 62
    7
 10
130.65615228161619
 20
138.33333333333286
 11
109.15615228161641
 21
138.33333333333314
  0
LINE
  8
_8-0_
  6
CONTINUOUS
 62
    7
 10
130.15615228161607
 20
137.83333333333303
 11
109.15615228161641
 21
137.83333333333331
  0
LINE
  8
_8-0_
  6
CONTINUOUS
 62
    7
 10
129.65615228161653
 20
137.3333333333332
 11
109.15615228161641
 21
137.3333333333332
  0
LINE
  8
_8-0_
  6
CONTINUOUS
 62
    7
 10
129.15615228161641
 20
136.83333333333309
 11
109.15615228161641
 21
136.83333333333309
  0
LINE
  8
_8-0_
  6
CONTINUOUS
 62
    7
 10
128.6561522816163
 20
136.33333333333297
 11
109.15615228161641
 21
136.33333333333326
  0
LINE
  8
_8-0_
  6
CONTINUOUS
 62
    7
 10
128.15615228161619
 20
135.83333333333286
 11
109.15615228161641
 21
135.83333333333314
  0
LINE
  8
_8-0_
  6
CONTINUOUS
 62
    7
 10
127.65615228161664
 20
135.33333333333331
 11
109.15615228161641
 21
135.33333333333331
  0
LINE
  8
_8-0_
  6
CONTINUOUS
 62
    7
 10
127.15615228161653
 20
134.8333333333332
 11
109.15615228161641
 21
134.8333333333332
  0
LINE
  8
_8-0_
  6
CONTINUOUS
 62
    7
 10
126.65615228161641
 20
134.33333333333309
 11
109.15615228161641
 21
134.33333333333309
  0
LINE
  8
_8-0_
  6
CONTINUOUS
 62
    7
 10
126.1561522816163
 20
133.83333333333297
 11
109.15615228161641
 21
133.83333333333326
  0
LINE
  8
_8-0_
  6
CONTINUOUS
 62
    7
 10
125.65615228161619
 20
133.33333333333314
 11
109.15615228161641
 21
133.33333333333314
  0
LINE
  8
_8-0_
  6
CONTINUOUS
 62
    7
 10
125.15615228161664
 20
132.83333333333331
 11
109.15615228161641
 21
132.83333333333331
  0
LINE
  8
_8-0_
  6
CONTINUOUS
 62
    7
 10
124.65615228161653
 20
132.33333333333292
 11
109.15615228161641
 21
132.3333333333332
  0
LINE
  8
_8-0_
  6
CONTINUOUS
 62
    7
 10
124.15615228161641
 20
131.83333333333309
 11
109.15615228161641
 21
131.83333333333309
  0
LINE
  8
_8-0_
  6
CONTINUOUS
 62
    7
 10
127.49206537175382
 20
156.83333333333309
 11
109.15615228161641
 21
156.83333333333309
  0
LINE
  8
_8-0_
  6
CONTINUOUS
 62
    7
 10
127.66635713082223
 20
156.33333333333297
 11
109.15615228161641
 21
156.33333333333326
  0
LINE
  8
_8-0_
  6
CONTINUOUS
 62
    7
 10
127.85266533347055
 20
155.83333333333286
 11
109.15615228161641
 21
155.83333333333314
  0
LINE
  8
_8-0_
  6
CONTINUOUS
 62
    7
 10
128.0512803716158
 20
155.33333333333303
 11
109.15615228161641
 21
155.33333333333331
  0
LINE
  8
_8-0_
  6
CONTINUOUS
 62
    7
 10
128.26252222293135
 20
154.83333333333292
 11
109.15615228161641
 21
154.8333333333332
  0
LINE
  8
_8-0_
  6
CONTINUOUS
 62
    7
 10
128.48674350553438
 20
154.33333333333309
 11
109.15615228161641
 21
154.33333333333309
  0
LINE
  8
_8-0_
  6
CONTINUOUS
 62
    7
 10
128.72433302633965
 20
153.83333333333297
 11
109.15615228161641
 21
153.83333333333326
  0
LINE
  8
_8-0_
  6
CONTINUOUS
 62
    7
 10
128.97571991831398
 20
153.33333333333286
 11
109.15615228161641
 21
153.33333333333314
  0
LINE
  8
_8-0_
  6
CONTINUOUS
 62
    7
 10
129.2413784850163
 20
152.83333333333303
 11
109.15615228161641
 21
152.83333333333331
  0
LINE
  8
_8-0_
  6
CONTINUOUS
 62
    7
 10
129.52183390065329
 20
152.33333333333292
 11
109.15615228161641
 21
152.3333333333332
  0
LINE
  8
_8-0_
  6
CONTINUOUS
 62
    7
 10
129.81766895271107
 20
151.83333333333309
 11
109.15615228161641
 21
151.83333333333309
  0
LINE
  8
_8-0_
  6
CONTINUOUS
 62
    7
 10
130.12953206525196
 20
151.33333333333297
 11
109.15615228161641
 21
151.33333333333326
  0
LINE
  8
_8-0_
  6
CONTINUOUS
 62
    7
 10
130.45814690873328
 20
150.83333333333286
 11
109.15615228161641
 21
150.83333333333314
  0
LINE
  8
_8-0_
  6
CONTINUOUS
 62
    7
 10
130.80432399323229
 20
150.33333333333303
 11
109.15615228161641
 21
150.33333333333331
  0
LINE
  8
_8-0_
  6
CONTINUOUS
 62
    7
 10
131.16897476578799
 20
149.83333333333292
 11
109.15615228161641
 21
149.8333333333332
  0
LINE
  8
_8-0_
  6
CONTINUOUS
 62
    7
 10
131.55312890317703
 20
149.33333333333309
 11
109.15615228161641
 21
149.33333333333309
  0
LINE
  8
_8-0_
  6
CONTINUOUS
 62
    7
 10
131.95795573018017
 20
148.83333333333297
 11
109.15615228161641
 21
148.83333333333326
  0
LINE
  8
_8-0_
  6
CONTINUOUS
 62
    7
 10
132.38479103258385
 20
148.33333333333286
 11
109.15615228161641
 21
148.33333333333314
  0
LINE
  8
_8-0_
  6
CONTINUOUS
 62
    7
 10
132.83517102492624
 20
147.83333333333303
 11
109.15615228161641
 21
147.83333333333331
  0
LINE
  8
_8-0_
  6
CONTINUOUS
 62
    7
 10
133.31087595691827
 20
147.33333333333292
 11
109.15615228161641
 21
147.3333333333332
  0
LINE
  8
_8-0_
  6
CONTINUOUS
 62
    7
 10
133.81398693381698
 20
146.83333333333309
 11
109.15615228161641
 21
146.83333333333309
  0
LINE
  8
_8-0_
  6
CONTINUOUS
 62
    7
 10
134.3469612119452
 20
146.33333333333297
 11
109.15615228161641
 21
146.33333333333326
  0
LINE
  8
_8-0_
  6
CONTINUOUS
 62
    7
 10
134.91273390752269
 20
145.83333333333286
 11
109.15615228161641
 21
145.83333333333314
  0
LINE
  8
_8-0_
  6
CONTINUOUS
 62
    7
 10
135.51485844273714
 20
145.33333333333303
 11
109.15615228161641
 21
145.33333333333331
  0
LINE
  8
_8-0_
  6
CONTINUOUS
 62
    7
 10
136.1577055014692
 20
144.83333333333292
 11
109.15615228161641
 21
144.8333333333332
  0
LINE
  8
_8-0_
  6
CONTINUOUS
 62
    7
 10
136.65615228161641
 20
144.33333333333309
 11
109.15615228161641
 21
144.33333333333309
  0
LINE
  8
_8-0_
  6
CONTINUOUS
 62
    7
 10
136.1561522816163
 20
143.83333333333297
 11
109.15615228161641
 21
143.83333333333326
  0
LINE
  8
_8-0_
  6
CONTINUOUS
 62
    7
 10
135.65615228161676
 20
143.33333333333314
 11
109.15615228161641
 21
143.33333333333314
  0
LINE
  8
_8-0_
  6
CONTINUOUS
 62
    7
 10
135.15615228161664
 20
142.83333333333331
 11
109.15615228161641
 21
142.83333333333331
  0
LINE
  8
_8-0_
  6
CONTINUOUS
 62
    7
 10
134.65615228161653
 20
142.33333333333292
 11
109.15615228161641
 21
142.3333333333332
  0
LINE
  8
_8-0_
  6
CONTINUOUS
 62
    7
 10
134.15615228161641
 20
141.83333333333309
 11
109.15615228161641
 21
141.83333333333309
  0
LINE
  8
_8-0_
  6
CONTINUOUS
 62
    7
 10
133.6561522816163
 20
141.33333333333326
 11
109.15615228161641
 21
141.33333333333326
  0
LINE
  8
_8-0_
  6
CONTINUOUS
 62
    7
 10
133.15615228161676
 20
140.83333333333314
 11
109.15615228161641
 21
140.83333333333314
  0
LINE
  8
_8-0_
  6
CONTINUOUS
 62
    7
 10
132.65615228161607
 20
140.33333333333303
 11
109.15615228161641
 21
140.33333333333331
  0
LINE
  8
_8-0_
  6
CONTINUOUS
 62
    7
 10
132.15615228161653
 20
139.83333333333292
 11
109.15615228161641
 21
139.8333333333332
  0
LINE
  8
_8-0_
  6
CONTINUOUS
 62
    7
 10
131.65615228161641
 20
139.33333333333309
 11
109.15615228161641
 21
139.33333333333309
  0
LINE
  8
_8-0_
  6
CONTINUOUS
 62
    7
 10
131.1561522816163
 20
138.83333333333326
 11
109.15615228161641
 21
138.83333333333326
  0
LINE
  8
_8-0_
  6
CONTINUOUS
 62
    7
 10
130.65615228161619
 20
138.33333333333286
 11
109.15615228161641
 21
138.33333333333314
  0
LINE
  8
_8-0_
  6
CONTINUOUS
 62
    7
 10
130.15615228161607
 20
137.83333333333303
 11
109.15615228161641
 21
137.83333333333331
  0
LINE
  8
_8-0_
  6
CONTINUOUS
 62
    7
 10
129.65615228161653
 20
137.3333333333332
 11
109.15615228161641
 21
137.3333333333332
  0
LINE
  8
_8-0_
  6
CONTINUOUS
 62
    7
 10
129.15615228161641
 20
136.83333333333309
 11
109.15615228161641
 21
136.83333333333309
  0
LINE
  8
_8-0_
  6
CONTINUOUS
 62
    7
 10
128.6561522816163
 20
136.33333333333297
 11
109.15615228161641
 21
136.33333333333326
  0
LINE
  8
_8-0_
  6
CONTINUOUS
 62
    7
 10
128.15615228161619
 20
135.83333333333286
 11
109.15615228161641
 21
135.83333333333314
  0
LINE
  8
_8-0_
  6
CONTINUOUS
 62
    7
 10
127.65615228161664
 20
135.33333333333331
 11
109.15615228161641
 21
135.33333333333331
  0
LINE
  8
_8-0_
  6
CONTINUOUS
 62
    7
 10
127.15615228161653
 20
134.8333333333332
 11
109.15615228161641
 21
134.8333333333332
  0
LINE
  8
_8-0_
  6
CONTINUOUS
 62
    7
 10
126.65615228161641
 20
134.33333333333309
 11
109.15615228161641
 21
134.33333333333309
  0
LINE
  8
_8-0_
  6
CONTINUOUS
 62
    7
 10
126.1561522816163
 20
133.83333333333297
 11
109.15615228161641
 21
133.83333333333326
  0
LINE
  8
_8-0_
  6
CONTINUOUS
 62
    7
 10
125.65615228161619
 20
133.33333333333314
 11
109.15615228161641
 21
133.33333333333314
  0
LINE
  8
_8-0_
  6
CONTINUOUS
 62
    7
 10
125.15615228161664
 20
132.83333333333331
 11
109.15615228161641
 21
132.83333333333331
  0
LINE
  8
_8-0_
  6
CONTINUOUS
 62
    7
 10
124.65615228161653
 20
132.33333333333292
 11
109.15615228161641
 21
132.3333333333332
  0
LINE
  8
_8-0_
  6
CONTINUOUS
 62
    7
 10
124.15615228161641
 20
131.83333333333309
 11
109.15615228161641
 21
131.83333333333309
  0
LINE
  8
_8-0_
  6
CONTINUOUS
 62
    7
 10
123.6561522816163
 20
131.33333333333326
 11
109.15615228161641
 21
131.33333333333326
  0
LINE
  8
_8-0_
  6
CONTINUOUS
 62
    7
 10
123.15615228161676
 20
130.83333333333314
 11
109.15615228161641
 21
130.83333333333314
  0
LINE
  8
_8-0_
  6
CONTINUOUS
 62
    7
 10
122.65615228161607
 20
130.33333333333303
 11
109.15615228161641
 21
130.33333333333331
  0
LINE
  8
_8-0_
  6
CONTINUOUS
 62
    7
 10
122.15615228161653
 20
129.83333333333292
 11
109.15615228161641
 21
129.8333333333332
  0
LINE
  8
_8-0_
  6
CONTINUOUS
 62
    7
 10
121.65615228161641
 20
129.33333333333309
 11
109.15615228161641
 21
129.33333333333309
  0
LINE
  8
_8-0_
  6
CONTINUOUS
 62
    7
 10
121.1561522816163
 20
128.83333333333326
 11
109.15615228161641
 21
128.83333333333326
  0
LINE
  8
_8-0_
  6
CONTINUOUS
 62
    7
 10
120.65615228161676
 20
128.33333333333286
 11
109.15615228161641
 21
128.33333333333314
  0
LINE
  8
_8-0_
  6
CONTINUOUS
 62
    7
 10
120.15615228161664
 20
127.83333333333303
 11
109.15615228161641
 21
127.83333333333331
  0
LINE
  8
_8-0_
  6
CONTINUOUS
 62
    7
 10
119.65615228161653
 20
127.3333333333332
 11
109.15615228161641
 21
127.3333333333332
  0
LINE
  8
_8-0_
  6
CONTINUOUS
 62
    7
 10
119.15615228161641
 20
126.83333333333309
 11
109.15615228161641
 21
126.83333333333309
  0
LINE
  8
_8-0_
  6
CONTINUOUS
 62
    7
 10
118.6561522816163
 20
126.33333333333297
 11
109.15615228161641
 21
126.33333333333326
  0
LINE
  8
_8-0_
  6
CONTINUOUS
 62
    7
 10
118.15615228161619
 20
125.83333333333286
 11
109.15615228161641
 21
125.83333333333314
  0
LINE
  8
_8-0_
  6
CONTINUOUS
 62
    7
 10
117.65615228161664
 20
125.33333333333331
 11
109.15615228161641
 21
125.33333333333331
  0
LINE
  8
_8-0_
  6
CONTINUOUS
 62
    7
 10
117.15615228161653
 20
124.8333333333332
 11
109.15615228161641
 21
124.8333333333332
  0
LINE
  8
_8-0_
  6
CONTINUOUS
 62
    7
 10
116.65615228161641
 20
124.33333333333309
 11
109.15615228161641
 21
124.33333333333309
  0
LINE
  8
_8-0_
  6
CONTINUOUS
 62
    7
 10
116.15615228161687
 20
123.83333333333297
 11
109.15615228161641
 21
123.83333333333326
  0
LINE
  8
_8-0_
  6
CONTINUOUS
 62
    7
 10
115.65615228161676
 20
123.33333333333314
 11
109.15615228161641
 21
123.33333333333314
  0
LINE
  8
_8-0_
  6
CONTINUOUS
 62
    7
 10
115.15615228161664
 20
122.83333333333331
 11
109.15615228161641
 21
122.83333333333331
  0
LINE
  8
_8-0_
  6
CONTINUOUS
 62
    7
 10
114.65615228161653
 20
122.33333333333292
 11
109.15615228161641
 21
122.3333333333332
  0
LINE
  8
_8-0_
  6
CONTINUOUS
 62
    7
 10
114.15615228161641
 20
121.83333333333309
 11
109.15615228161641
 21
121.83333333333309
  0
LINE
  8
_8-0_
  6
CONTINUOUS
 62
    7
 10
113.65615228161687
 20
121.33333333333326
 11
109.15615228161641
 21
121.33333333333326
  0
LINE
  8
_8-0_
  6
CONTINUOUS
 62
    7
 10
113.15615228161619
 20
120.83333333333314
 11
109.15615228161641
 21
120.83333333333314
  0
LINE
  8
_8-0_
  6
CONTINUOUS
 62
    7
 10
112.65615228161664
 20
120.33333333333303
 11
109.15615228161641
 21
120.33333333333331
  0
LINE
  8
_8-0_
  6
CONTINUOUS
 62
    7
 10
112.15615228161653
 20
119.83333333333292
 11
109.15615228161641
 21
119.8333333333332
  0
LINE
  8
_8-0_
  6
CONTINUOUS
 62
    7
 10
111.65615228161641
 20
119.33333333333309
 11
109.15615228161641
 21
119.33333333333309
  0
LINE
  8
_8-0_
  6
CONTINUOUS
 62
    7
 10
111.15615228161687
 20
118.83333333333326
 11
109.15615228161641
 21
118.83333333333326
  0
LINE
  8
_8-0_
  6
CONTINUOUS
 62
    7
 10
110.65615228161619
 20
118.33333333333286
 11
109.15615228161641
 21
118.33333333333314
  0
LINE
  8
_8-0_
  6
CONTINUOUS
 62
    7
 10
110.15615228161664
 20
117.83333333333303
 11
109.15615228161641
 21
117.83333333333331
  0
LINE
  8
_8-0_
  6
CONTINUOUS
 62
    7
 10
109.65615228161653
 20
117.33333333333292
 11
109.15615228161641
 21
117.3333333333332
  0
LINE
  8
_8-0_
  6
CONTINUOUS
 62
    7
 10
123.6561522816163
 20
131.33333333333326
 11
109.15615228161641
 21
131.33333333333326
  0
LINE
  8
_8-0_
  6
CONTINUOUS
 62
    7
 10
123.15615228161676
 20
130.83333333333314
 11
109.15615228161641
 21
130.83333333333314
  0
LINE
  8
_8-0_
  6
CONTINUOUS
 62
    7
 10
122.65615228161607
 20
130.33333333333303
 11
109.15615228161641
 21
130.33333333333331
  0
LINE
  8
_8-0_
  6
CONTINUOUS
 62
    7
 10
122.15615228161653
 20
129.83333333333292
 11
109.15615228161641
 21
129.8333333333332
  0
LINE
  8
_8-0_
  6
CONTINUOUS
 62
    7
 10
121.65615228161641
 20
129.33333333333309
 11
109.15615228161641
 21
129.33333333333309
  0
LINE
  8
_8-0_
  6
CONTINUOUS
 62
    7
 10
121.1561522816163
 20
128.83333333333326
 11
109.15615228161641
 21
128.83333333333326
  0
LINE
  8
_8-0_
  6
CONTINUOUS
 62
    7
 10
120.65615228161676
 20
128.33333333333286
 11
109.15615228161641
 21
128.33333333333314
  0
LINE
  8
_8-0_
  6
CONTINUOUS
 62
    7
 10
120.15615228161664
 20
127.83333333333303
 11
109.15615228161641
 21
127.83333333333331
  0
LINE
  8
_8-0_
  6
CONTINUOUS
 62
    7
 10
119.65615228161653
 20
127.3333333333332
 11
109.15615228161641
 21
127.3333333333332
  0
LINE
  8
_8-0_
  6
CONTINUOUS
 62
    7
 10
119.15615228161641
 20
126.83333333333309
 11
109.15615228161641
 21
126.83333333333309
  0
LINE
  8
_8-0_
  6
CONTINUOUS
 62
    7
 10
118.6561522816163
 20
126.33333333333297
 11
109.15615228161641
 21
126.33333333333326
  0
LINE
  8
_8-0_
  6
CONTINUOUS
 62
    7
 10
118.15615228161619
 20
125.83333333333286
 11
109.15615228161641
 21
125.83333333333314
  0
LINE
  8
_8-0_
  6
CONTINUOUS
 62
    7
 10
117.65615228161664
 20
125.33333333333331
 11
109.15615228161641
 21
125.33333333333331
  0
LINE
  8
_8-0_
  6
CONTINUOUS
 62
    7
 10
117.15615228161653
 20
124.8333333333332
 11
109.15615228161641
 21
124.8333333333332
  0
LINE
  8
_8-0_
  6
CONTINUOUS
 62
    7
 10
116.65615228161641
 20
124.33333333333309
 11
109.15615228161641
 21
124.33333333333309
  0
LINE
  8
_8-0_
  6
CONTINUOUS
 62
    7
 10
116.15615228161687
 20
123.83333333333297
 11
109.15615228161641
 21
123.83333333333326
  0
LINE
  8
_8-0_
  6
CONTINUOUS
 62
    7
 10
115.65615228161676
 20
123.33333333333314
 11
109.15615228161641
 21
123.33333333333314
  0
LINE
  8
_8-0_
  6
CONTINUOUS
 62
    7
 10
115.15615228161664
 20
122.83333333333331
 11
109.15615228161641
 21
122.83333333333331
  0
LINE
  8
_8-0_
  6
CONTINUOUS
 62
    7
 10
114.65615228161653
 20
122.33333333333292
 11
109.15615228161641
 21
122.3333333333332
  0
LINE
  8
_8-0_
  6
CONTINUOUS
 62
    7
 10
114.15615228161641
 20
121.83333333333309
 11
109.15615228161641
 21
121.83333333333309
  0
LINE
  8
_8-0_
  6
CONTINUOUS
 62
    7
 10
113.65615228161687
 20
121.33333333333326
 11
109.15615228161641
 21
121.33333333333326
  0
LINE
  8
_8-0_
  6
CONTINUOUS
 62
    7
 10
113.15615228161619
 20
120.83333333333314
 11
109.15615228161641
 21
120.83333333333314
  0
LINE
  8
_8-0_
  6
CONTINUOUS
 62
    7
 10
112.65615228161664
 20
120.33333333333303
 11
109.15615228161641
 21
120.33333333333331
  0
LINE
  8
_8-0_
  6
CONTINUOUS
 62
    7
 10
112.15615228161653
 20
119.83333333333292
 11
109.15615228161641
 21
119.8333333333332
  0
LINE
  8
_8-0_
  6
CONTINUOUS
 62
    7
 10
111.65615228161641
 20
119.33333333333309
 11
109.15615228161641
 21
119.33333333333309
  0
LINE
  8
_8-0_
  6
CONTINUOUS
 62
    7
 10
111.15615228161687
 20
118.83333333333326
 11
109.15615228161641
 21
118.83333333333326
  0
LINE
  8
_8-0_
  6
CONTINUOUS
 62
    7
 10
110.65615228161619
 20
118.33333333333286
 11
109.15615228161641
 21
118.33333333333314
  0
LINE
  8
_8-0_
  6
CONTINUOUS
 62
    7
 10
110.15615228161664
 20
117.83333333333303
 11
109.15615228161641
 21
117.83333333333331
  0
LINE
  8
_8-0_
  6
CONTINUOUS
 62
    7
 10
109.65615228161653
 20
117.33333333333292
 11
109.15615228161641
 21
117.3333333333332
  0
LINE
  8
_8-0_
  6
CONTINUOUS
 62
    7
 10
123.6561522816163
 20
131.33333333333326
 11
109.15615228161641
 21
131.33333333333326
  0
LINE
  8
_8-0_
  6
CONTINUOUS
 62
    7
 10
123.15615228161676
 20
130.83333333333314
 11
109.15615228161641
 21
130.83333333333314
  0
LINE
  8
_8-0_
  6
CONTINUOUS
 62
    7
 10
122.65615228161607
 20
130.33333333333303
 11
109.15615228161641
 21
130.33333333333331
  0
LINE
  8
_8-0_
  6
CONTINUOUS
 62
    7
 10
122.15615228161653
 20
129.83333333333292
 11
109.15615228161641
 21
129.8333333333332
  0
LINE
  8
_8-0_
  6
CONTINUOUS
 62
    7
 10
121.65615228161641
 20
129.33333333333309
 11
109.15615228161641
 21
129.33333333333309
  0
LINE
  8
_8-0_
  6
CONTINUOUS
 62
    7
 10
121.1561522816163
 20
128.83333333333326
 11
109.15615228161641
 21
128.83333333333326
  0
LINE
  8
_8-0_
  6
CONTINUOUS
 62
    7
 10
120.65615228161676
 20
128.33333333333286
 11
109.15615228161641
 21
128.33333333333314
  0
LINE
  8
_8-0_
  6
CONTINUOUS
 62
    7
 10
120.15615228161664
 20
127.83333333333303
 11
109.15615228161641
 21
127.83333333333331
  0
LINE
  8
_8-0_
  6
CONTINUOUS
 62
    7
 10
119.65615228161653
 20
127.3333333333332
 11
109.15615228161641
 21
127.3333333333332
  0
LINE
  8
_8-0_
  6
CONTINUOUS
 62
    7
 10
119.15615228161641
 20
126.83333333333309
 11
109.15615228161641
 21
126.83333333333309
  0
LINE
  8
_8-0_
  6
CONTINUOUS
 62
    7
 10
118.6561522816163
 20
126.33333333333297
 11
109.15615228161641
 21
126.33333333333326
  0
LINE
  8
_8-0_
  6
CONTINUOUS
 62
    7
 10
118.15615228161619
 20
125.83333333333286
 11
109.15615228161641
 21
125.83333333333314
  0
LINE
  8
_8-0_
  6
CONTINUOUS
 62
    7
 10
117.65615228161664
 20
125.33333333333331
 11
109.15615228161641
 21
125.33333333333331
  0
LINE
  8
_8-0_
  6
CONTINUOUS
 62
    7
 10
117.15615228161653
 20
124.8333333333332
 11
109.15615228161641
 21
124.8333333333332
  0
LINE
  8
_8-0_
  6
CONTINUOUS
 62
    7
 10
116.65615228161641
 20
124.33333333333309
 11
109.15615228161641
 21
124.33333333333309
  0
LINE
  8
_8-0_
  6
CONTINUOUS
 62
    7
 10
116.15615228161687
 20
123.83333333333297
 11
109.15615228161641
 21
123.83333333333326
  0
LINE
  8
_8-0_
  6
CONTINUOUS
 62
    7
 10
115.65615228161676
 20
123.33333333333314
 11
109.15615228161641
 21
123.33333333333314
  0
LINE
  8
_8-0_
  6
CONTINUOUS
 62
    7
 10
115.15615228161664
 20
122.83333333333331
 11
109.15615228161641
 21
122.83333333333331
  0
LINE
  8
_8-0_
  6
CONTINUOUS
 62
    7
 10
114.65615228161653
 20
122.33333333333292
 11
109.15615228161641
 21
122.3333333333332
  0
LINE
  8
_8-0_
  6
CONTINUOUS
 62
    7
 10
114.15615228161641
 20
121.83333333333309
 11
109.15615228161641
 21
121.83333333333309
  0
LINE
  8
_8-0_
  6
CONTINUOUS
 62
    7
 10
113.65615228161687
 20
121.33333333333326
 11
109.15615228161641
 21
121.33333333333326
  0
LINE
  8
_8-0_
  6
CONTINUOUS
 62
    7
 10
113.15615228161619
 20
120.83333333333314
 11
109.15615228161641
 21
120.83333333333314
  0
LINE
  8
_8-0_
  6
CONTINUOUS
 62
    7
 10
112.65615228161664
 20
120.33333333333303
 11
109.15615228161641
 21
120.33333333333331
  0
LINE
  8
_8-0_
  6
CONTINUOUS
 62
    7
 10
112.15615228161653
 20
119.83333333333292
 11
109.15615228161641
 21
119.8333333333332
  0
LINE
  8
_8-0_
  6
CONTINUOUS
 62
    7
 10
111.65615228161641
 20
119.33333333333309
 11
109.15615228161641
 21
119.33333333333309
  0
LINE
  8
_8-0_
  6
CONTINUOUS
 62
    7
 10
111.15615228161687
 20
118.83333333333326
 11
109.15615228161641
 21
118.83333333333326
  0
LINE
  8
_8-0_
  6
CONTINUOUS
 62
    7
 10
110.65615228161619
 20
118.33333333333286
 11
109.15615228161641
 21
118.33333333333314
  0
LINE
  8
_8-0_
  6
CONTINUOUS
 62
    7
 10
110.15615228161664
 20
117.83333333333303
 11
109.15615228161641
 21
117.83333333333331
  0
LINE
  8
_8-0_
  6
CONTINUOUS
 62
    7
 10
109.65615228161653
 20
117.33333333333292
 11
109.15615228161641
 21
117.3333333333332
  0
LINE
  8
_8-0_
  6
CONTINUOUS
 62
    7
 10
123.6561522816163
 20
131.33333333333326
 11
109.15615228161641
 21
131.33333333333326
  0
LINE
  8
_8-0_
  6
CONTINUOUS
 62
    7
 10
123.15615228161676
 20
130.83333333333314
 11
109.15615228161641
 21
130.83333333333314
  0
LINE
  8
_8-0_
  6
CONTINUOUS
 62
    7
 10
122.65615228161607
 20
130.33333333333303
 11
109.15615228161641
 21
130.33333333333331
  0
LINE
  8
_8-0_
  6
CONTINUOUS
 62
    7
 10
122.15615228161653
 20
129.83333333333292
 11
109.15615228161641
 21
129.8333333333332
  0
LINE
  8
_8-0_
  6
CONTINUOUS
 62
    7
 10
121.65615228161641
 20
129.33333333333309
 11
109.15615228161641
 21
129.33333333333309
  0
LINE
  8
_8-0_
  6
CONTINUOUS
 62
    7
 10
121.1561522816163
 20
128.83333333333326
 11
109.15615228161641
 21
128.83333333333326
  0
LINE
  8
_8-0_
  6
CONTINUOUS
 62
    7
 10
120.65615228161676
 20
128.33333333333286
 11
109.15615228161641
 21
128.33333333333314
  0
LINE
  8
_8-0_
  6
CONTINUOUS
 62
    7
 10
120.15615228161664
 20
127.83333333333303
 11
109.15615228161641
 21
127.83333333333331
  0
LINE
  8
_8-0_
  6
CONTINUOUS
 62
    7
 10
119.65615228161653
 20
127.3333333333332
 11
109.15615228161641
 21
127.3333333333332
  0
LINE
  8
_8-0_
  6
CONTINUOUS
 62
    7
 10
119.15615228161641
 20
126.83333333333309
 11
109.15615228161641
 21
126.83333333333309
  0
LINE
  8
_8-0_
  6
CONTINUOUS
 62
    7
 10
118.6561522816163
 20
126.33333333333297
 11
109.15615228161641
 21
126.33333333333326
  0
LINE
  8
_8-0_
  6
CONTINUOUS
 62
    7
 10
118.15615228161619
 20
125.83333333333286
 11
109.15615228161641
 21
125.83333333333314
  0
LINE
  8
_8-0_
  6
CONTINUOUS
 62
    7
 10
117.65615228161664
 20
125.33333333333331
 11
109.15615228161641
 21
125.33333333333331
  0
LINE
  8
_8-0_
  6
CONTINUOUS
 62
    7
 10
117.15615228161653
 20
124.8333333333332
 11
109.15615228161641
 21
124.8333333333332
  0
LINE
  8
_8-0_
  6
CONTINUOUS
 62
    7
 10
116.65615228161641
 20
124.33333333333309
 11
109.15615228161641
 21
124.33333333333309
  0
LINE
  8
_8-0_
  6
CONTINUOUS
 62
    7
 10
116.15615228161687
 20
123.83333333333297
 11
109.15615228161641
 21
123.83333333333326
  0
LINE
  8
_8-0_
  6
CONTINUOUS
 62
    7
 10
115.65615228161676
 20
123.33333333333314
 11
109.15615228161641
 21
123.33333333333314
  0
LINE
  8
_8-0_
  6
CONTINUOUS
 62
    7
 10
115.15615228161664
 20
122.83333333333331
 11
109.15615228161641
 21
122.83333333333331
  0
LINE
  8
_8-0_
  6
CONTINUOUS
 62
    7
 10
114.65615228161653
 20
122.33333333333292
 11
109.15615228161641
 21
122.3333333333332
  0
LINE
  8
_8-0_
  6
CONTINUOUS
 62
    7
 10
114.15615228161641
 20
121.83333333333309
 11
109.15615228161641
 21
121.83333333333309
  0
LINE
  8
_8-0_
  6
CONTINUOUS
 62
    7
 10
113.65615228161687
 20
121.33333333333326
 11
109.15615228161641
 21
121.33333333333326
  0
LINE
  8
_8-0_
  6
CONTINUOUS
 62
    7
 10
113.15615228161619
 20
120.83333333333314
 11
109.15615228161641
 21
120.83333333333314
  0
LINE
  8
_8-0_
  6
CONTINUOUS
 62
    7
 10
112.65615228161664
 20
120.33333333333303
 11
109.15615228161641
 21
120.33333333333331
  0
LINE
  8
_8-0_
  6
CONTINUOUS
 62
    7
 10
112.15615228161653
 20
119.83333333333292
 11
109.15615228161641
 21
119.8333333333332
  0
LINE
  8
_8-0_
  6
CONTINUOUS
 62
    7
 10
111.65615228161641
 20
119.33333333333309
 11
109.15615228161641
 21
119.33333333333309
  0
LINE
  8
_8-0_
  6
CONTINUOUS
 62
    7
 10
111.15615228161687
 20
118.83333333333326
 11
109.15615228161641
 21
118.83333333333326
  0
LINE
  8
_8-0_
  6
CONTINUOUS
 62
    7
 10
110.65615228161619
 20
118.33333333333286
 11
109.15615228161641
 21
118.33333333333314
  0
LINE
  8
_8-0_
  6
CONTINUOUS
 62
    7
 10
110.15615228161664
 20
117.83333333333303
 11
109.15615228161641
 21
117.83333333333331
  0
LINE
  8
_8-0_
  6
CONTINUOUS
 62
    7
 10
109.65615228161653
 20
117.33333333333292
 11
109.15615228161641
 21
117.3333333333332
  0
LINE
  8
_8-0_
  6
CONTINUOUS
 62
    7
 10
492.65520800142212
 20
229.20694400189532
 11
470.63345286894958
 21
191.0641452406125
  0
LINE
  8
_8-0_
  6
CONTINUOUS
 62
    7
 10
470.63345286894958
 20
191.0641452406125
 11
514.67696313389411
 21
191.0641452406125
  0
LINE
  8
_8-0_
  6
CONTINUOUS
 62
    7
 10
514.67696313389411
 20
191.0641452406125
 11
492.65520800142212
 21
229.20694400189532
  0
LINE
  8
_8-0_
  6

 62
    7
 10
532.65520800142212
 20
235.20694400189541
 11
532.65520800142212
 21
85.206944001895408
  0
LINE
  8
_8-0_
  6
CONTINUOUS
 62
    7
 10
1241.3052080014211
 20
235.20694400189541
 11
1241.3052080014211
 21
85
  0
LINE
  8
_8-0_
  6
CONTINUOUS
 62
    7
 10
492.65520800142212
 20
179.20694400189547
 11
470.63345286894958
 21
141.0641452406125
  0
LINE
  8
_8-0_
  6
CONTINUOUS
 62
    7
 10
470.63345286894958
 20
141.0641452406125
 11
514.67696313389411
 21
141.0641452406125
  0
LINE
  8
_8-0_
  6
CONTINUOUS
 62
    7
 10
514.67696313389411
 20
141.0641452406125
 11
492.65520800142212
 21
179.20694400189547
  0
LINE
  8
_8-0_
  6
CONTINUOUS
 62
    7
 10
492.65520800142212
 20
129.20694400189547
 11
470.63345286894958
 21
91.064145240612504
  0
LINE
  8
_8-0_
  6
CONTINUOUS
 62
    7
 10
470.63345286894958
 20
91.064145240612504
 11
514.67696313389411
 21
91.064145240612504
  0
LINE
  8
_8-0_
  6
CONTINUOUS
 62
    7
 10
514.67696313389411
 20
91.064145240612504
 11
492.65520800142212
 21
129.20694400189547
  0
TEXT
  8
_8-0_
 62
    7
 10
3821.6914276195143
 20
208.22951344633964
 40
16.977430555555628
 41
1.000000000000002
 50
0
  1
.
  0
TEXT
  8
_8-0_
 62
    7
 10
146.32760400071163
 20
141.20694400189564
 40
27.999999999999829
 41
1.0000000000000062
 50
0
  1
âXâJâCâëâCâgâ`âàü[âu
  0
TEXT
  8
_8-0_
 62
    7
 10
239.5922648091846
 20
114.59787232705935
 40
20
 41
1
 50
0
  1
æ¥ùzî§Åãû¥âVâXâeâÇ
  0
TEXT
  8
_8-0_
 62
    7
 10
2955.1320743208657
 20
205.81794660606192
 40
20
 41
1
 50
0
  1
ô·òt
  0
TEXT
  8
_8-0_
 62
    7
 10
2562.4471784875323
 20
200.43209591161769
 40
20
 41
1
 50
0
  1
É}û╩û╝
  0
TEXT
  8
_8-0_
 62
    7
 10
1963.3153425500325
 20
200.43209591161769
 40
20
 41
1
 50
0
  1
ê─îÅû╝
  0
TEXT
  8
_8-0_
 62
    7
 10
2958.8941185916997
 20
130.23917056439529
 40
20
 41
1
 50
0
  1
Ä┌ôx
  0
TEXT
  8
_8-0_
 62
    7
 10
3238.5082678972549
 20
205.23917056439529
 40
20
 41
1
 50
0
  1
É╗É}
  0
TEXT
  8
_8-0_
 62
    7
 10
3638.7011932444784
 20
205.23917056439529
 40
20
 41
1
 50
0
  1
ÆSôûÄÊ
  0
TEXT
  8
_8-0_
 62
    7
 10
3787.7365665083662
 20
208.22951344633964
 40
20
 41
1
 50
0
  1
éméÅ
  0
TEXT
  8
_8-0_
 62
    7
 10
3280.1447921627678
 20
150.39222318971269
 40
27.999999999999829
 41
1.0000000000000064
 50
0
  1
èöÄ«ë´Äð
  0
TEXT
  8
_8-0_
 62
    7
 10
3407.6613108684796
 20
149.45694400189552
 40
34.000000000000057
 41
0.9999999999999978
 50
0
  1
êõ öV Åñ
  0
TEXT
  8
_8-0_
 62
    7
 10
424.13579173435153
 20
118.95694335976373
 40
5.4294704861111143
 41
0.9999999999999993
 50
0
  1
ésél
  0
TEXT
  8
_8-0_
 62
    7
 10
439.76265166090741
 20
163.32770250263451
 40
5
 41
1
 50
0
  1
éq
  0
TEXT
  8
_8-0_
 62
    7
 10
486.27168527414824
 20
195.27841149437336
 40
21.000000000000014
 41
1.0000000000000033
 50
0
  1
1
  0
TEXT
  8
_8-0_
 62
    7
 10
485.01884436505975
 20
145.27841149437336
 40
20.999999999999996
 41
1.0000000000000042
 50
0
  1
2
  0
TEXT
  8
_8-0_
 62
    7
 10
485.01884436505748
 20
95.278411494373358
 40
20.999999999999996
 41
0.9999999999999974
 50
0
  1
3
  0
LINE
  8
_0-3_âh__âÇ
  6
CONTINUOUS
 62
    7
 10
4061.6429733251916
 20
1059.4700000000016
 11
2311.6429733246309
 21
1059.4700000000016
  0
TEXT
  8
_0-3_âh__âÇ
 62
    7
 10
2385.1429733251912
 20
2734.6627891695493
 40
33.954861111110972
 41
1.176470588235299
 50
0
  1
ö[é▄éÞÄûùß
  0
LINE
  8
_0-3_âh__âÇ
  6
CONTINUOUS
 62
    7
 10
2355.1429733251912
 20
2791.0516780584385
 11
2638.1429733251912
 21
2791.0516780584385
  0
LINE
  8
_0-3_âh__âÇ
  6
CONTINUOUS
 62
    7
 10
2638.1429733251912
 20
2791.0516780584385
 11
2638.1429733251912
 21
2717.051678058438
  0
LINE
  8
_0-3_âh__âÇ
  6
CONTINUOUS
 62
    7
 10
2638.1429733251912
 20
2717.051678058438
 11
2355.1429733251912
 21
2717.051678058438
  0
LINE
  8
_0-3_âh__âÇ
  6
CONTINUOUS
 62
    7
 10
2355.1429733251912
 20
2717.051678058438
 11
2355.1429733251912
 21
2791.0516780584385
  0
LINE
  8
_0-3_âh__âÇ
  6
CONTINUOUS
 62
    7
 10
2355.0797059578817
 20
2678.9569493962563
 11
2672.6429733251912
 21
2678.9569493962563
  0
LINE
  8
_0-3_âh__âÇ
  6
CONTINUOUS
 62
    7
 10
2672.6429733251912
 20
2678.9569493962563
 11
2672.6429733251912
 21
2638.9569493962563
  0
LINE
  8
_0-3_âh__âÇ
  6
CONTINUOUS
 62
    7
 10
2672.6429733251912
 20
2638.9569493962563
 11
2355.0797059578817
 21
2638.9569493962563
  0
LINE
  8
_0-3_âh__âÇ
  6
CONTINUOUS
 62
    7
 10
2355.0797059578817
 20
2638.9569493962563
 11
2355.0797059578817
 21
2678.9569493962563
  0
TEXT
  8
_0-3_âh__âÇ
 62
    7
 10
2373.1857050079975
 20
2645.1351552845972
 40
24.432617187500085
 41
1.1764705882352904
 50
0
  1
âîâCâxâôâ_ü[âhü[âÇ
  0
TEXT
  8
_0-3_âh__âÇ
 62
    7
 10
2485.4102067810722
 20
2348.6846008309685
 40
24.432617187500085
 41
1.1764705882352908
 50
0
  1
âïü[âtâxü[âX
  0
TEXT
  8
_0-3_âh__âÇ
 62
    7
 10
2485.4102067810722
 20
2316.9346008309685
 40
24.432617187499943
 41
1.1764705882352977
 50
0
  1
üiëJëƒéªö┬üj
  0
LINE
  8
_0-3_âh__âÇ
  6
CONTINUOUS
 62
    7
 10
2466.6429733251916
 20
2378.9569493962558
 11
2676.6429733251916
 21
2378.9569493962558
  0
LINE
  8
_0-3_âh__âÇ
  6
CONTINUOUS
 62
    7
 10
2676.6429733251916
 20
2378.9569493962558
 11
2676.6429733251916
 21
2298.9569493962558
  0
LINE
  8
_0-3_âh__âÇ
  6
CONTINUOUS
 62
    7
 10
2676.6429733251916
 20
2298.9569493962558
 11
2466.6429733251916
 21
2298.9569493962558
  0
LINE
  8
_0-3_âh__âÇ
  6
CONTINUOUS
 62
    7
 10
2466.6429733251916
 20
2298.9569493962558
 11
2466.6429733251916
 21
2378.9569493962558
  0
TEXT
  8
_0-3_âh__âÇ
 62
    7
 10
2378.6314459832411
 20
2129.2622427515521
 40
24.432617187499943
 41
1.1764705882352975
 50
0
  1
âgâbâvâAâôâOâïâ`âàü[âu
  0
TEXT
  8
_0-3_âh__âÇ
 62
    7
 10
2526.6521112167666
 20
1809.5256838145212
 40
24.432617187500014
 41
1.1764705882352942
 50
0
  1
ëäÆÀâ`âàü[âu
  0
LINE
  8
_0-3_âh__âÇ
  6
CONTINUOUS
 62
    7
 10
2495.415945878432
 20
1843.9569493962561
 11
2723.6429733251912
 21
1843.9569493962561
  0
LINE
  8
_0-3_âh__âÇ
  6
CONTINUOUS
 62
    7
 10
2723.6429733251912
 20
1843.9569493962561
 11
2723.6429733251912
 21
1799.9569493962558
  0
LINE
  8
_0-3_âh__âÇ
  6
CONTINUOUS
 62
    7
 10
2723.6429733251912
 20
1799.9569493962558
 11
2495.415945878432
 21
1799.9569493962558
  0
LINE
  8
_0-3_âh__âÇ
  6
CONTINUOUS
 62
    7
 10
2495.415945878432
 20
1799.9569493962558
 11
2495.415945878432
 21
1843.9569493962561
  0
TEXT
  8
_0-3_âh__âÇ
 62
    7
 10
2381.8541374364409
 20
1498.5466794914128
 40
24.4326171875
 41
1.1764705882352944
 50
0
  1
â{âgâÇâAâôâOâïâ`âàü[âu
  0
LINE
  8
_0-3_âh__âÇ
  6
CONTINUOUS
 62
    7
 10
2503.2182937747034
 20
2502.3684622726278
 11
2503.2183003710429
 21
2502.368480180367
  0
LINE
  8
_0-3_âh__âÇ
  6
CONTINUOUS
 62
    7
 10
2503.2183003710429
 20
2502.368480180367
 11
2503.2183069663056
 21
2502.3684980851749
  0
LINE
  8
_0-3_âh__âÇ
  6
CONTINUOUS
 62
    7
 10
2503.2183069663056
 20
2502.3684980851749
 11
2503.2183135604841
 21
2502.3685159870511
  0
LINE
  8
_0-3_âh__âÇ
  6
CONTINUOUS
 62
    7
 10
2503.2183135604841
 20
2502.3685159870511
 11
2503.2183201535863
 21
2502.3685338859959
  0
LINE
  8
_0-3_âh__âÇ
  6
CONTINUOUS
 62
    7
 10
2503.2183201535863
 20
2502.3685338859959
 11
2503.218326745618
 21
2502.368551782009
  0
LINE
  8
_0-3_âh__âÇ
  6
CONTINUOUS
 62
    7
 10
2503.218326745618
 20
2502.368551782009
 11
2503.2183333365665
 21
2502.3685696750904
  0
LINE
  8
_0-3_âh__âÇ
  6
CONTINUOUS
 62
    7
 10
2503.2183333365665
 20
2502.3685696750904
 11
2503.2183399264445
 21
2502.36858756524
  0
LINE
  8
_0-3_âh__âÇ
  6
CONTINUOUS
 62
    7
 10
2503.2183399264445
 20
2502.36858756524
 11
2503.2183465152389
 21
2502.3686054524583
  0
LINE
  8
_0-3_âh__âÇ
  6
CONTINUOUS
 62
    7
 10
2509.4572876732905
 20
2523.1755133661559
 11
2509.45729426963
 21
2523.1755312738956
  0
LINE
  8
_0-3_âh__âÇ
  6
CONTINUOUS
 62
    7
 10
2509.45729426963
 20
2523.1755312738956
 11
2509.4573008648854
 21
2523.1755491787035
  0
LINE
  8
_0-3_âh__âÇ
  6
CONTINUOUS
 62
    7
 10
2509.4573008648854
 20
2523.1755491787035
 11
2509.4573074590712
 21
2523.1755670805801
  0
LINE
  8
_0-3_âh__âÇ
  6
CONTINUOUS
 62
    7
 10
2509.4573074590712
 20
2523.1755670805801
 11
2509.4573140521734
 21
2523.1755849795245
  0
LINE
  8
_0-3_âh__âÇ
  6
CONTINUOUS
 62
    7
 10
2509.4573140521734
 20
2523.1755849795245
 11
2509.4573206442051
 21
2523.1756028755376
  0
LINE
  8
_0-3_âh__âÇ
  6
CONTINUOUS
 62
    7
 10
2509.4573206442051
 20
2523.1756028755376
 11
2509.4573272351536
 21
2523.1756207686199
  0
LINE
  8
_0-3_âh__âÇ
  6
CONTINUOUS
 62
    7
 10
2509.4573272351536
 20
2523.1756207686199
 11
2509.4573338250248
 21
2523.1756386587695
  0
LINE
  8
_0-3_âh__âÇ
  6
CONTINUOUS
 62
    7
 10
2509.4573338250248
 20
2523.1756386587695
 11
2509.4573404138259
 21
2523.1756565459882
  0
TEXT
  8
_0-3_âh__âÇ
 62
    7
 10
2499.782334538429
 20
2515.715020559298
 40
24.432617187500085
 41
1.1764705882352902
 50
0
  1
ï╚û╩ö¢Ä╦ö┬
  0
TEXT
  8
_0-3_âh__âÇ
 62
    7
 10
2456.6659512663659
 20
2483.965020559298
 40
24.432617187499943
 41
1.176470588235297
 50
0
  1
üiôýæñé╔î³é»éÚüj
  0
LINE
  8
_0-3_âh__âÇ
  6
CONTINUOUS
 62
    7
 10
2456.6429733251916
 20
2548.9569493962558
 11
2686.6429733251916
 21
2548.9569493962558
  0
LINE
  8
_0-3_âh__âÇ
  6
CONTINUOUS
 62
    7
 10
2686.6429733251916
 20
2548.9569493962558
 11
2686.6429733251916
 21
2468.9569493962558
  0
LINE
  8
_0-3_âh__âÇ
  6
CONTINUOUS
 62
    7
 10
2686.6429733251916
 20
2468.9569493962558
 11
2456.6429733251916
 21
2468.9569493962558
  0
LINE
  8
_0-3_âh__âÇ
  6
CONTINUOUS
 62
    7
 10
2456.6429733251916
 20
2468.9569493962558
 11
2456.6429733251916
 21
2548.9569493962558
  0
LINE
  8
_0-3_âh__âÇ
  6
CONTINUOUS
 62
    7
 10
3021.0373968593749
 20
2528.0549169954757
 11
3252.7901037224492
 21
2550.959204449784
  0
POINT
  8
_0-3_âh__âÇ
 62
    7
 10
3021.0373968593749
 20
2528.0549169954757
  0
LINE
  8
_f-f_
  6
CONTINUOUS
 62
    7
 10
3029.465289109603
 20
2504.8955051142093
 11
3027.8247856462235
 21
2521.4947422201381
  0
LINE
  8
_f-f_
  6
CONTINUOUS
 62
    7
 10
3027.890713767787
 20
2513.5964055438299
 11
3027.1170229600666
 21
2521.4247909655369
  0
LINE
  8
_f-f_
  6
CONTINUOUS
 62
    7
 10
3028.7575371977928
 20
2504.8255574814348
 11
3027.8619596246476
 21
2513.8873248528835
  0
LINE
  8
_f-f_
  6
CONTINUOUS
 62
    7
 10
2896.6210536296976
 20
2360.7785490766337
 11
3006.0877441513203
 21
2371.5972211875569
  0
ARC
  8
_f-f_
  6
CONTINUOUS
 62
    7
 10
3004.8386792803335
 20
2384.2356481841439
 40
12.700000000000271
 50
275.64425413320151
 51
354.69748508758357
  0
LINE
  8
_f-f_
  6
CONTINUOUS
 62
    7
 10
3017.4843314433433
 20
2383.0619866604829
 11
3028.75840421776
 21
2504.534830314075
  0
ARC
  8
_f-f_
  6
CONTINUOUS
 62
    7
 10
3027.2409259582037
 20
2504.6756696969142
 40
1.5239999999990812
 50
354.69748508757669
 51
5.6442541332505698
  0
ARC
  8
_f-f_
  6
CONTINUOUS
 62
    7
 10
3027.2409259582037
 20
2504.6756696969142
 40
2.2351999999986876
 50
354.69748508760057
 51
5.644254133227264
  0
LINE
  8
_f-f_
  6
CONTINUOUS
 62
    7
 10
3018.1924879644771
 20
2382.9962616151597
 11
3029.4665607388933
 21
2504.4691052687513
  0
ARC
  8
_f-f_
  6
CONTINUOUS
 62
    7
 10
3004.8386792803335
 20
2384.2356481841439
 40
13.411200000001358
 50
275.64425413320146
 51
354.69748508759062
  0
LINE
  8
_f-f_
  6
CONTINUOUS
 62
    7
 10
2896.6910012624771
 20
2360.0707971648239
 11
3006.1576917840989
 21
2370.8894692757463
  0
LINE
  8
_f-f_
  6
CONTINUOUS
 62
    7
 10
3030.4506363135056
 20
2526.432834296997
 11
3030.5222526308908
 21
2525.7081981151005
  0
ARC
  8
_f-f_
  6
CONTINUOUS
 62
    7
 10
3031.8437946567919
 20
2521.8919412272876
 40
4.0385999999989455
 50
109.10059782694825
 51
185.64425413319958
  0
ARC
  8
_f-f_
  6
CONTINUOUS
 62
    7
 10
3031.8437946567919
 20
2521.8919412272876
 40
4.7497999999992926
 50
107.05615587701213
 51
185.64425413321536
  0
LINE
  8
_f-f_
  6
CONTINUOUS
 62
    7
 10
3316.1535623117652
 20
2366.4314469234923
 11
3316.1009715598534
 21
2366.4262493414853
  0
LINE
  8
_0-3_âh__âÇ
  6
CONTINUOUS
 62
    7
 10
2896.6210536296976
 20
2360.7785490766337
 11
2896.6910012624771
 21
2360.0707971648239
  0
LINE
  8
_f-f_
  6
CONTINUOUS
 62
    7
 10
3292.6649267191583
 20
2531.2189701694415
 11
3291.0244012065573
 21
2547.8182050962296
  0
LINE
  8
_f-f_
  6
CONTINUOUS
 62
    7
 10
3292.5058436721793
 20
2540.0597647252134
 11
3291.7321643932496
 21
2547.8881512863195
  0
LINE
  8
_f-f_
  6
CONTINUOUS
 62
    7
 10
3293.3726786309758
 20
2531.288917802216
 11
3292.4770942383302
 21
2540.3506844996896
  0
LINE
  8
_f-f_
  6
CONTINUOUS
 62
    7
 10
3451.1663067991594
 20
2415.7276585302129
 11
3341.6832753490939
 21
2405.0756247101535
  0
ARC
  8
_f-f_
  6
CONTINUOUS
 62
    7
 10
3340.4342104781072
 20
2417.7140517067387
 40
12.699999999999678
 50
196.59102317881738
 51
275.64425413320237
  0
LINE
  8
_f-f_
  6
CONTINUOUS
 62
    7
 10
3328.262945476612
 20
2414.0877163301707
 11
3293.4287380703799
 21
2531.003645341546
  0
ARC
  8
_f-f_
  6
CONTINUOUS
 62
    7
 10
3294.8892898705653
 20
2531.4388055867339
 40
1.5240000000021869
 50
185.6442541331588
 51
196.59102317878728
  0
ARC
  8
_f-f_
  6
CONTINUOUS
 62
    7
 10
3294.8892898705653
 20
2531.4388055867339
 40
2.235200000003434
 50
185.64425413315431
 51
196.59102317877364
  0
LINE
  8
_f-f_
  6
CONTINUOUS
 62
    7
 10
3327.5813546365293
 20
2413.8846415490834
 11
3292.7471472302982
 21
2530.8005705604587
  0
ARC
  8
_f-f_
  6
CONTINUOUS
 62
    7
 10
3340.4342104781072
 20
2417.7140517067387
 40
13.411199999999868
 50
196.59102317881667
 51
275.64425413320242
  0
LINE
  8
_f-f_
  6
CONTINUOUS
 62
    7
 10
3451.2362544319381
 20
2415.0199066184036
 11
3341.7532229818657
 21
2404.3678727983438
  0
LINE
  8
_f-f_
  6
CONTINUOUS
 62
    7
 10
3287.4827215487362
 20
2552.1467556951861
 11
3287.5543378661223
 21
2551.4221195132886
  0
ARC
  8
_f-f_
  6
CONTINUOUS
 62
    7
 10
3287.0053926965243
 20
2547.4210010245697
 40
4.038599999998647
 50
5.6442541332085181
 51
82.187910439479737
  0
ARC
  8
_f-f_
  6
CONTINUOUS
 62
    7
 10
3287.0053926965243
 20
2547.4210010245697
 40
4.7497999999981291
 50
5.644254133206581
 51
84.23235238939219
  0
LINE
  8
_0-3_âh__âÇ
  6
CONTINUOUS
 62
    7
 10
3030.4506363135056
 20
2526.432834296997
 11
3277.6025499659354
 21
2550.8590364837146
  0
POINT
  8
_0-3_âh__âÇ
 62
    7
 10
3030.4506363135056
 20
2526.432834296997
  0
LINE
  8
_0-3_âh__âÇ
  6
CONTINUOUS
 62
    7
 10
3232.0667787948159
 20
1893.8188998294122
 11
3459.3534753915133
 21
1985.2834004259948
  0
LINE
  8
_0-3_âh__âÇ
  6
CONTINUOUS
 62
    7
 10
3250.7330052849625
 20
1847.4338550394257
 11
3101.4031763237845
 21
2218.514172736855
  0
LINE
  8
_0-3_âh__âÇ
  6
CONTINUOUS
 62
    7
 10
3478.0196998746374
 20
1938.8983752781485
 11
3328.6898709134593
 21
2309.9786929755778
  0
LINE
  8
_0-3_âh__âÇ
  6
CONTINUOUS
 62
    7
 10
3101.4031763237845
 20
2218.514172736855
 11
3328.6898709134671
 21
2309.9786929755574
  0
POINT
  8
_0-3_âh__âÇ
 62
    7
 10
3101.4031763237845
 20
2218.514172736855
  0
POINT
  8
_0-3_âh__âÇ
 62
    7
 10
3232.0667766648166
 20
1893.8188947516046
  0
LINE
  8
_f-f_
  6
CONTINUOUS
 62
    7
 10
3375.1188057647573
 20
1380.1137453436706
 11
3621.5048113637213
 21
1380.1137453436706
  0
LINE
  8
_f-f_
  6
CONTINUOUS
 62
    7
 10
3621.5048113637213
 20
1380.1137452685859
 11
3621.5048113637213
 21
1582.2915399846788
  0
LINE
  8
_f-f_
  6
CONTINUOUS
 62
    7
 10
3375.1188057644736
 20
1525.1546253303875
 11
3344.0641483856939
 21
1615.5086564785322
  0
LINE
  8
_f-f_
  6
CONTINUOUS
 62
    7
 10
3375.1188057647573
 20
1380.1137453436706
 11
3375.1188057647573
 21
1525.1546253305312
  0
LINE
  8
_f-f_
  6
CONTINUOUS
 62
    7
 10
3621.5233801918566
 20
1582.2958460959196
 11
3571.3508518084905
 21
1706.9731598271344
  0
LINE
  8
_f-f_
  6
CONTINUOUS
 62
    7
 10
3344.4175957765378
 20
1615.6508905239841
 11
3344.0641483856939
 21
1615.5086564785322
  0
LINE
  8
_f-f_
  6
CONTINUOUS
 62
    7
 10
3621.5048113637213
 20
1578.8112887718441
 11
3375.4056293433291
 21
1521.740888505607
  0
LINE
  8
_f-f_
  6
CONTINUOUS
 62
    7
 10
3373.6599452176424
 20
1529.0882398723013
 11
3620.151364932045
 21
1585.7052652043023
  0
LINE
  8
_f-f_
  6
CONTINUOUS
 62
    7
 10
3375.1188057644736
 20
1525.1546253303875
 11
3621.5233801918121
 21
1582.2958460959101
  0
LINE
  8
_0-3_âh__âÇ
  6
CONTINUOUS
 62
    7
 10
3362.7303770058406
 20
1569.1236167663535
 11
3590.017078677969
 21
1660.5881194054032
  0
LINE
  8
_0-3_âh__âÇ
  6
CONTINUOUS
 62
    7
 10
3362.7303770059784
 20
1569.1236167664081
 11
3232.0667766648166
 21
1893.8188947516046
  0
LINE
  8
_0-3_âh__âÇ
  6
CONTINUOUS
 62
    7
 10
3590.0170786780845
 20
1660.5881194054516
 11
3459.3534712544906
 21
1985.2834149903269
  0
POINT
  8
_0-3_âh__âÇ
 62
    7
 10
3232.0667766648166
 20
1893.8188947516046
  0
POINT
  8
_0-3_âh__âÇ
 62
    7
 10
3344.0641483856939
 20
1615.5086564785322
  0
LINE
  8
_0-3_âh__âÇ
  6
CONTINUOUS
 62
    7
 10
2962.9036844593338
 20
2366.6146444820101
 11
2968.159911401327
 21
2312.2738329084564
  0
LINE
  8
_0-3_âh__âÇ
  6
CONTINUOUS
 62
    7
 10
2771.8001750255917
 20
2307.9430770240951
 11
2937.8762542736349
 21
2324.0071279074918
  0
LINE
  8
_0-3_âh__âÇ
  6
CONTINUOUS
 62
    7
 10
2956.07185331659
 20
2311.1045905887086
 11
2968.159911401327
 21
2312.2738329084564
  0
LINE
  8
_0-3_âh__âÇ
  6
CONTINUOUS
 62
    7
 10
2914.5422342444999
 20
2321.7500967518918
 11
2954.3564146631443
 21
2325.6012053704376
  0
LINE
  8
_0-3_âh__âÇ
  6
CONTINUOUS
 62
    7
 10
2954.3564146631443
 20
2325.6012053704376
 11
2958.2075232816915
 21
2285.787024951796
  0
LINE
  8
_0-3_âh__âÇ
  6
CONTINUOUS
 62
    7
 10
2958.2075232816915
 20
2285.787024951796
 11
2918.3933428630462
 21
2281.9359163332506
  0
LINE
  8
_0-3_âh__âÇ
  6
CONTINUOUS
 62
    7
 10
2918.3933428630462
 20
2281.9359163332506
 11
2914.5422342444999
 21
2321.7500967518918
  0
LINE
  8
_0-3_âh__âÇ
  6
CONTINUOUS
 62
    7
 10
2792.6444870211249
 20
2379.3335400276037
 11
2779.2388256510221
 21
2333.4199894971202
  0
LINE
  8
_0-3_âh__âÇ
  6
CONTINUOUS
 62
    7
 10
2779.2388256510221
 20
2333.4199894971202
 11
2788.1373423055243
 21
2328.2174515251786
  0
LINE
  8
_0-3_âh__âÇ
  6
CONTINUOUS
 62
    7
 10
2788.1373423055243
 20
2328.2174515251786
 11
2767.5375712945734
 21
2329.0233263890714
  0
LINE
  8
_0-3_âh__âÇ
  6
CONTINUOUS
 62
    7
 10
2767.5375712945734
 20
2329.0233263890714
 11
2776.4360879490755
 21
2323.8207884171293
  0
LINE
  8
_0-3_âh__âÇ
  6
CONTINUOUS
 62
    7
 10
2776.4360879490755
 20
2323.8207884171293
 11
2763.0304265789719
 21
2277.9072378866458
  0
LINE
  8
_0-3_âh__âÇ
  6
CONTINUOUS
 62
    7
 10
2783.8747385745064
 20
2349.2977008901753
 11
2962.9036844593338
 21
2366.6146444820101
  0
LINE
  8
_0-3_âh__âÇ
  6
CONTINUOUS
 62
    7
 10
3494.9270105289816
 20
2433.5203597091804
 11
3626.3523768504219
 21
2446.2327490040002
  0
LINE
  8
_0-3_âh__âÇ
  6
CONTINUOUS
 62
    7
 10
3494.9270105289816
 20
2433.5203597091804
 11
3488.7181030300758
 21
2418.6981632867542
  0
LINE
  8
_0-3_âh__âÇ
  6
CONTINUOUS
 62
    7
 10
3450.9271898500715
 20
2468.7557049218613
 11
3638.2180087930078
 21
2486.8717952048055
  0
ARC
  8
_0-3_âh__âÇ
  6
CONTINUOUS
 62
    7
 10
3452.8527441593451
 20
2448.8486147125409
 40
19.999999999999243
 50
95.524864643339541
 51
163.72345515698836
  0
LINE
  8
_0-3_âh__âÇ
  6
CONTINUOUS
 62
    7
 10
3432.701857262507
 20
2451.1918895514755
 11
3435.093833106167
 21
2413.5112453119114
  0
LINE
  8
_0-3_âh__âÇ
  6
CONTINUOUS
 62
    7
 10
3647.092223042795
 20
2517.2654231748816
 11
3633.6865616726914
 21
2471.3518726443981
  0
LINE
  8
_0-3_âh__âÇ
  6
CONTINUOUS
 62
    7
 10
3633.6865616726914
 20
2471.3518726443981
 11
3642.5850783271944
 21
2466.1493346724565
  0
LINE
  8
_0-3_âh__âÇ
  6
CONTINUOUS
 62
    7
 10
3642.5850783271944
 20
2466.1493346724565
 11
3621.9853073162426
 21
2466.9552095363492
  0
LINE
  8
_0-3_âh__âÇ
  6
CONTINUOUS
 62
    7
 10
3621.9853073162426
 20
2466.9552095363492
 11
3630.8838239707447
 21
2461.7526715644071
  0
LINE
  8
_0-3_âh__âÇ
  6
CONTINUOUS
 62
    7
 10
3630.8838239707447
 20
2461.7526715644071
 11
3617.478162600642
 21
2415.8391210339237
  0
LINE
  8
_0-3_âh__âÇ
  6
CONTINUOUS
 62
    7
 10
3420.0854184810937
 20
2412.0595254898385
 11
3479.8066891090616
 21
2417.8361884176552
  0
LINE
  8
_0-3_âh__âÇ
  6
CONTINUOUS
 62
    7
 10
3479.8066891090616
 20
2417.8361884176552
 11
3482.2136319956458
 21
2392.9523256560037
  0
LINE
  8
_0-3_âh__âÇ
  6
CONTINUOUS
 62
    7
 10
3422.4923613676851
 20
2387.1756627281884
 11
3420.0854184810937
 21
2412.0595254898385
  0
LINE
  8
_0-3_âh__âÇ
  6
CONTINUOUS
 62
    7
 10
3434.93429274851
 20
2388.3791341714832
 11
3469.7717006148214
 21
2391.7488542127085
  0
LINE
  8
_0-3_âh__âÇ
  6
CONTINUOUS
 62
    7
 10
3469.7717006148214
 20
2391.7488542127085
 11
3473.1414206560485
 21
2356.911446346397
  0
LINE
  8
_0-3_âh__âÇ
  6
CONTINUOUS
 62
    7
 10
3473.1414206560485
 20
2356.911446346397
 11
3438.304012789738
 21
2353.5417263051704
  0
LINE
  8
_0-3_âh__âÇ
  6
CONTINUOUS
 62
    7
 10
3438.304012789738
 20
2353.5417263051704
 11
3434.93429274851
 21
2388.3791341714832
  0
LINE
  8
_f-f_
  6
CONTINUOUS
 62
    7
 10
3280.555203277564
 20
2554.0066976372955
 11
3297.1476956567985
 21
2388.0817738457022
  0
LINE
  8
_f-f_
  6
CONTINUOUS
 62
    7
 10
3037.1272844198807
 20
2527.1112119823456
 11
3056.9373626216525
 21
2329.0104299654704
  0
LINE
  8
_f-f_
  6
CONTINUOUS
 62
    7
 10
3297.2496094003486
 20
2388.1068359723613
 11
3328.6898709134593
 21
2309.978692975586
  0
LINE
  8
_f-f_
  6
CONTINUOUS
 62
    7
 10
3056.9373652759873
 20
2329.010430618212
 11
3101.4031862921311
 21
2218.5141479658032
  0
LINE
  8
_f-f_
  6
CONTINUOUS
 62
    7
 10
3328.6898709134671
 20
2309.9786929755574
 11
3101.4031763237845
 21
2218.514172736855
  0
LINE
  8
_f-f_
  6
CONTINUOUS
 62
    7
 10
3319.4476072553716
 20
2380.2932033196057
 11
3319.5003100170843
 21
2380.2971173187352
  0
LINE
  8
_f-f_
  6
CONTINUOUS
 62
    7
 10
3058.215678639031
 20
2325.8338587827461
 11
3298.5280846460419
 21
2384.9298618631628
  0
LINE
  8
_f-f_
  6
CONTINUOUS
 62
    7
 10
3296.8088498925549
 20
2391.4702314880778
 11
3056.5985249936257
 21
2332.3988062457506
  0
LINE
  8
_f-f_
  6
CONTINUOUS
 62
    7
 10
3297.2496094003486
 20
2388.1068359723618
 11
3056.9373626216525
 21
2329.0104299654704
  0
LINE
  8
_0-3_âh__âÇ
  6
CONTINUOUS
 62
    7
 10
3023.7777317922496
 20
2525.7762567195819
 11
3026.8920815832876
 21
2494.6327588092017
  0
LINE
  8
_0-3_âh__âÇ
  6
CONTINUOUS
 62
    7
 10
3026.8920815832876
 20
2494.6327588092017
 11
3011.4157060183838
 21
2493.0851212527109
  0
LINE
  8
_0-3_âh__âÇ
  6
CONTINUOUS
 62
    7
 10
3011.4157060183838
 20
2493.0851212527109
 11
3010.0226539520863
 21
2507.0156419156501
  0
LINE
  8
_0-3_âh__âÇ
  6
CONTINUOUS
 62
    7
 10
3010.0226539520863
 20
2507.0156419156501
 11
3017.501367758055
 21
2507.7635132962469
  0
LINE
  8
_0-3_âh__âÇ
  6
CONTINUOUS
 62
    7
 10
3017.501367758055
 20
2507.7635132962469
 11
3018.6416778670082
 21
2496.3604122067541
  0
LINE
  8
_0-3_âh__âÇ
  6
CONTINUOUS
 62
    7
 10
3018.6416778670082
 20
2496.3604122067541
 11
3024.1517466504138
 21
2496.9114190850955
  0
LINE
  8
_0-3_âh__âÇ
  6
CONTINUOUS
 62
    7
 10
3024.1517466504138
 20
2496.9114190850955
 11
3021.0373968593749
 21
2528.0549169954757
  0
LINE
  8
_0-3_âh__âÇ
  6
CONTINUOUS
 62
    7
 10
3021.0373968593749
 20
2528.0549169954757
 11
3040.1096112021382
 21
2529.9621384297516
  0
LINE
  8
_0-3_âh__âÇ
  6
CONTINUOUS
 62
    7
 10
3040.1096112021382
 20
2529.9621384297516
 11
3042.9578176945997
 21
2501.4800735051358
  0
LINE
  8
_0-3_âh__âÇ
  6
CONTINUOUS
 62
    7
 10
3042.9578176945997
 20
2501.4800735051358
 11
3039.7227489550041
 21
2501.1565666311762
  0
LINE
  8
_0-3_âh__âÇ
  6
CONTINUOUS
 62
    7
 10
3039.7227489550041
 20
2501.1565666311762
 11
3037.1272844198884
 21
2527.1112119823447
  0
LINE
  8
_0-3_âh__âÇ
  6
CONTINUOUS
 62
    7
 10
3037.1272844198884
 20
2527.1112119823447
 11
3023.7777317922496
 21
2525.7762567195819
  0
LINE
  8
_0-3_âh__âÇ
  6
CONTINUOUS
 62
    7
 10
3294.1574978625558
 20
2552.8142333265678
 11
3297.2718476535929
 21
2521.6707354161895
  0
LINE
  8
_0-3_âh__âÇ
  6
CONTINUOUS
 62
    7
 10
3297.2718476535929
 20
2521.6707354161895
 11
3312.7482232184966
 21
2523.2183729726789
  0
LINE
  8
_0-3_âh__âÇ
  6
CONTINUOUS
 62
    7
 10
3312.7482232184966
 20
2523.2183729726789
 11
3311.3551711521995
 21
2537.1488936356191
  0
LINE
  8
_0-3_âh__âÇ
  6
CONTINUOUS
 62
    7
 10
3311.3551711521995
 20
2537.1488936356191
 11
3303.8764573462299
 21
2536.4010222550214
  0
LINE
  8
_0-3_âh__âÇ
  6
CONTINUOUS
 62
    7
 10
3303.8764573462299
 20
2536.4010222550214
 11
3305.0167674551822
 21
2524.9979211655291
  0
LINE
  8
_0-3_âh__âÇ
  6
CONTINUOUS
 62
    7
 10
3305.0167674551822
 20
2524.9979211655291
 11
3299.5066986717766
 21
2524.4469142871872
  0
LINE
  8
_0-3_âh__âÇ
  6
CONTINUOUS
 62
    7
 10
3299.5066986717766
 20
2524.4469142871872
 11
3296.3923488807318
 21
2555.5904121975673
  0
LINE
  8
_0-3_âh__âÇ
  6
CONTINUOUS
 62
    7
 10
3296.3923488807318
 20
2555.5904121975673
 11
3277.3201345379762
 21
2553.6831907632913
  0
LINE
  8
_0-3_âh__âÇ
  6
CONTINUOUS
 62
    7
 10
3277.3201345379762
 20
2553.6831907632913
 11
3280.1683410304372
 21
2525.2011258386756
  0
LINE
  8
_0-3_âh__âÇ
  6
CONTINUOUS
 62
    7
 10
3280.1683410304372
 20
2525.2011258386756
 11
3283.4034097700328
 21
2525.524632712636
  0
LINE
  8
_0-3_âh__âÇ
  6
CONTINUOUS
 62
    7
 10
3283.4034097700328
 20
2525.524632712636
 11
3280.807945234917
 21
2551.4792780638045
  0
LINE
  8
_0-3_âh__âÇ
  6
CONTINUOUS
 62
    7
 10
3280.807945234917
 20
2551.4792780638045
 11
3294.1574978625558
 21
2552.8142333265678
  0
LINE
  8
_0-3_âh__âÇ
  6
CONTINUOUS
 62
    7
 10
3040.1096112021382
 20
2529.9621384297516
 11
3277.3201345379694
 21
2553.6831907633486
  0
POINT
  8
_0-3_âh__âÇ
 62
    7
 10
3021.0373968593749
 20
2528.0549169954757
  0
POINT
  8
_0-3_âh__âÇ
 62
    7
 10
3030.4525081060688
 20
2526.4437343509626
  0
LINE
  8
_0-3_âh__âÇ
  6
CONTINUOUS
 62
    7
 10
3154.3220100238077
 20
2087.012397383673
 11
3171.0721080930134
 21
2099.1820559792154
  0
LINE
  8
_0-3_âh__âÇ
  6
CONTINUOUS
 62
    7
 10
3171.0721080930134
 20
2099.1820559792154
 11
3174.9128497653924
 21
2089.1765818481913
  0
LINE
  8
_0-3_âh__âÇ
  6
CONTINUOUS
 62
    7
 10
3174.9128497653924
 20
2089.1765818481913
 11
3154.3220100238077
 21
2087.012397383673
  0
LINE
  8
_0-3_âh__âÇ
  6
CONTINUOUS
 62
    7
 10
3381.6087046134908
 20
2178.4769176223749
 11
3364.8586065442769
 21
2166.3072590268325
  0
LINE
  8
_0-3_âh__âÇ
  6
CONTINUOUS
 62
    7
 10
3364.8586065442769
 20
2166.3072590268325
 11
3361.0178648719061
 21
2176.3127331578571
  0
LINE
  8
_0-3_âh__âÇ
  6
CONTINUOUS
 62
    7
 10
3361.0178648719061
 20
2176.3127331578571
 11
3381.6087046134908
 21
2178.4769176223749
  0
LINE
  8
_0-3_âh__âÇ
  6
CONTINUOUS
 62
    7
 10
3083.2267540089356
 20
2211.1996321752754
 11
3032.2032103255383
 21
2190.6667806931177
  0
LINE
  8
_0-3_âh__âÇ
  6
CONTINUOUS
 62
    7
 10
3064.5605253887898
 20
2257.5846718874545
 11
3013.5369817053925
 21
2237.0518204052964
  0
LINE
  8
_0-3_âh__âÇ
  6
CONTINUOUS
 62
    7
 10
3022.5707515840963
 20
2240.6871824725472
 11
3031.7027124526844
 21
2228.1181166345655
  0
LINE
  8
_0-3_âh__âÇ
  6
CONTINUOUS
 62
    7
 10
3031.7027124526844
 20
2228.1181166345655
 11
3024.1947287636694
 21
2225.2360717207193
  0
LINE
  8
_0-3_âh__âÇ
  6
CONTINUOUS
 62
    7
 10
3024.1947287636694
 20
2225.2360717207193
 11
3022.5707515840963
 21
2240.6871824725472
  0
LINE
  8
_0-3_âh__âÇ
  6
CONTINUOUS
 62
    7
 10
3041.236980204214
 20
2194.3021427603599
 11
3032.1050193356259
 21
2206.8712085983416
  0
LINE
  8
_0-3_âh__âÇ
  6
CONTINUOUS
 62
    7
 10
3032.1050193356259
 20
2206.8712085983416
 11
3039.61300302464
 21
2209.7532535121877
  0
LINE
  8
_0-3_âh__âÇ
  6
CONTINUOUS
 62
    7
 10
3039.61300302464
 20
2209.7532535121877
 11
3041.236980204214
 21
2194.3021427603599
  0
LINE
  8
_0-3_âh__âÇ
  6
CONTINUOUS
 62
    7
 10
3334.2616391475144
 20
1486.3833427605152
 11
3662.3465256750333
 21
1561.7417075794724
  0
LINE
  8
_0-3_âh__âÇ
  6
CONTINUOUS
 62
    7
 10
3662.3465256750333
 20
1561.7417075794724
 11
3669.5101184626451
 21
1530.5538423371524
  0
LINE
  8
_0-3_âh__âÇ
  6
CONTINUOUS
 62
    7
 10
3669.5101184626451
 20
1530.5538423371524
 11
3341.4252319351272
 21
1455.1954775181948
  0
LINE
  8
_0-3_âh__âÇ
  6
CONTINUOUS
 62
    7
 10
3341.4252319351272
 20
1455.1954775181948
 11
3334.2616391475144
 21
1486.3833427605152
  0
LINE
  8
_0-3_âh__âÇ
  6
CONTINUOUS
 62
    7
 10
3031.1121323344537
 20
2310.4001708386045
 11
3358.0014134326098
 21
2390.7865740364809
  0
LINE
  8
_0-3_âh__âÇ
  6
CONTINUOUS
 62
    7
 10
3358.0014134326098
 20
2390.7865740364809
 11
3365.6429733251912
 21
2359.7123634687437
  0
LINE
  8
_0-3_âh__âÇ
  6
CONTINUOUS
 62
    7
 10
3365.6429733251912
 20
2359.7123634687437
 11
3038.7536922270351
 21
2279.3259602708677
  0
LINE
  8
_0-3_âh__âÇ
  6
CONTINUOUS
 62
    7
 10
3038.7536922270351
 20
2279.3259602708677
 11
3031.1121323344537
 21
2310.4001708386045
  0
LINE
  8
_0-3_âh__âÇ
  6
CONTINUOUS
 62
    7
 10
3070.1991762334919
 20
2648.7809504781844
 11
3038.1716139559776
 21
2641.3868051090139
  0
LINE
  8
_0-3_âh__âÇ
  6
CONTINUOUS
 62
    7
 10
3038.1716139559776
 20
2641.3868051090139
 11
3038.7654209952939
 21
2658.3912138879641
  0
LINE
  8
_0-3_âh__âÇ
  6
CONTINUOUS
 62
    7
 10
3038.7654209952939
 20
2658.3912138879641
 11
3070.1991762334919
 21
2648.7809504781844
  0
LINE
  8
_0-3_âh__âÇ
  6
CONTINUOUS
 62
    7
 10
3185.6429733251912
 20
2592.7354518177472
 11
3155.6147170235836
 21
2579.3660107424735
  0
LINE
  8
_0-3_âh__âÇ
  6
CONTINUOUS
 62
    7
 10
3155.6147170235836
 20
2579.3660107424735
 11
3152.953019999009
 21
2596.1713043629657
  0
LINE
  8
_0-3_âh__âÇ
  6
CONTINUOUS
 62
    7
 10
3152.953019999009
 20
2596.1713043629657
 11
3185.6429733251912
 21
2592.7354518177472
  0
LINE
  8
_0-3_âh__âÇ
  6
CONTINUOUS
 62
    7
 10
3022.1151561119746
 20
2432.9569493962563
 11
2993.6488848706408
 21
2416.5219400322458
  0
LINE
  8
_0-3_âh__âÇ
  6
CONTINUOUS
 62
    7
 10
2993.6488848706408
 20
2416.5219400322458
 11
2989.2451373839554
 21
2432.9569493962563
  0
LINE
  8
_0-3_âh__âÇ
  6
CONTINUOUS
 62
    7
 10
2989.2451373839554
 20
2432.9569493962563
 11
3022.1151561119746
 21
2432.9569493962563
  0
LINE
  8
_0-3_âh__âÇ
  6
CONTINUOUS
 62
    7
 10
3104.6429733251916
 20
2406.9569493962558
 11
3083.0783007555851
 21
2382.1496313601169
  0
LINE
  8
_0-3_âh__âÇ
  6
CONTINUOUS
 62
    7
 10
3083.0783007555851
 20
2382.1496313601169
 11
3073.5637600375539
 21
2396.2555180620025
  0
LINE
  8
_0-3_âh__âÇ
  6
CONTINUOUS
 62
    7
 10
3073.5637600375539
 20
2396.2555180620025
 11
3104.6429733251916
 21
2406.9569493962558
  0
LINE
  8
_0-3_âh__âÇ
  6
CONTINUOUS
 62
    7
 10
3169.6362513564213
 20
2048.9569493962558
 11
3144.8289333202824
 21
2027.3922768266514
  0
LINE
  8
_0-3_âh__âÇ
  6
CONTINUOUS
 62
    7
 10
3144.8289333202824
 20
2027.3922768266514
 11
3137.3701474525637
 21
2042.6850541447543
  0
LINE
  8
_0-3_âh__âÇ
  6
CONTINUOUS
 62
    7
 10
3137.3701474525637
 20
2042.6850541447543
 11
3169.6362513564213
 21
2048.9569493962558
  0
LINE
  8
_0-3_âh__âÇ
  6
CONTINUOUS
 62
    7
 10
3306.7316911454013
 20
1708.2787359028896
 11
3273.9067196356677
 21
1706.5584520410355
  0
LINE
  8
_0-3_âh__âÇ
  6
CONTINUOUS
 62
    7
 10
3273.9067196356677
 20
1706.5584520410355
 11
3277.4442900085392
 21
1723.2014121316718
  0
LINE
  8
_0-3_âh__âÇ
  6
CONTINUOUS
 62
    7
 10
3277.4442900085392
 20
1723.2014121316718
 11
3306.7316911454013
 21
1708.2787359028896
  0
LINE
  8
_0-3_âh__âÇ
  6
CONTINUOUS
 62
    7
 10
3391.6429733251916
 20
1440.9569493962558
 11
3359.1776390723808
 21
1435.8149456006756
  0
LINE
  8
_0-3_âh__âÇ
  6
CONTINUOUS
 62
    7
 10
3359.1776390723808
 20
1435.8149456006756
 11
3360.9561672221153
 21
1452.7365106093321
  0
LINE
  8
_0-3_âh__âÇ
  6
CONTINUOUS
 62
    7
 10
3360.9561672221153
 20
1452.7365106093321
 11
3391.6429733251916
 21
1440.9569493962558
  0
LINE
  8
_0-3_âh__âÇ
  6
CONTINUOUS
 62
    7
 10
3357.8052669685762
 20
1360.9569493962558
 11
3326.9175529247641
 21
1349.7147408797812
  0
LINE
  8
_0-3_âh__âÇ
  6
CONTINUOUS
 62
    7
 10
3326.9175529247641
 20
1349.7147408797812
 11
3325.4346176835656
 21
1366.6647682482544
  0
LINE
  8
_0-3_âh__âÇ
  6
CONTINUOUS
 62
    7
 10
3325.4346176835656
 20
1366.6647682482544
 11
3357.8052669685762
 21
1360.9569493962558
  0
LINE
  8
_f-f_
  6
CONTINUOUS
 62
    7
 10
3009.5386589274835
 20
2520.6345606496461
 11
3010.0226539520863
 21
2507.0156419156501
  0
LINE
  8
_f-f_
  6
CONTINUOUS
 62
    7
 10
3009.3149634607448
 20
2520.6127488133279
 11
3009.5386589274835
 21
2520.6345606496461
  0
LINE
  8
_f-f_
  6
CONTINUOUS
 62
    7
 10
3009.2333730127702
 20
2522.915290100108
 11
3009.3149634607448
 21
2520.6127488133279
  0
LINE
  8
_f-f_
  6
CONTINUOUS
 62
    7
 10
3009.456831042085
 20
2522.9370787846551
 11
3009.2333730127702
 21
2522.915290100108
  0
LINE
  8
_f-f_
  6
CONTINUOUS
 62
    7
 10
3009.0900974199735
 20
2533.2564315519985
 11
3009.456831042085
 21
2522.9370787846551
  0
LINE
  8
_f-f_
  6
CONTINUOUS
 62
    7
 10
3009.153586066755
 20
2537.2477488658669
 11
3009.1125828125855
 21
2536.7503878092498
  0
LINE
  8
_f-f_
  6
CONTINUOUS
 62
    7
 10
3009.1125828125855
 20
2536.7503878092498
 11
3009.0810273222137
 21
2536.2525828647422
  0
LINE
  8
_f-f_
  6
CONTINUOUS
 62
    7
 10
3009.0810273222137
 20
2536.2525828647422
 11
3009.0589195956541
 21
2535.7543340323441
  0
LINE
  8
_f-f_
  6
CONTINUOUS
 62
    7
 10
3009.0589195956541
 20
2535.7543340323441
 11
3009.0462596329071
 21
2535.2556413120546
  0
LINE
  8
_f-f_
  6
CONTINUOUS
 62
    7
 10
3009.0462596329071
 20
2535.2556413120546
 11
3009.0430474339569
 21
2534.7565047038752
  0
LINE
  8
_f-f_
  6
CONTINUOUS
 62
    7
 10
3009.0430474339569
 20
2534.7565047038752
 11
3009.0492829988266
 21
2534.2569242078052
  0
LINE
  8
_f-f_
  6
CONTINUOUS
 62
    7
 10
3009.0492829988266
 20
2534.2569242078052
 11
3009.0649663274939
 21
2533.7568998238448
  0
LINE
  8
_f-f_
  6
CONTINUOUS
 62
    7
 10
3009.0649663274939
 20
2533.7568998238448
 11
3009.0900974199735
 21
2533.256431551993
  0
LINE
  8
_f-f_
  6
CONTINUOUS
 62
    7
 10
3010.4892540204946
 20
2543.39276899472
 11
3010.2403017847296
 21
2542.6493612536688
  0
LINE
  8
_f-f_
  6
CONTINUOUS
 62
    7
 10
3010.2403017847296
 20
2542.6493612536688
 11
3010.0147763322584
 21
2541.8988907197449
  0
LINE
  8
_f-f_
  6
CONTINUOUS
 62
    7
 10
3010.0147763322584
 20
2541.8988907197449
 11
3009.8126776630943
 21
2541.1413573929481
  0
LINE
  8
_f-f_
  6
CONTINUOUS
 62
    7
 10
3009.8126776630943
 20
2541.1413573929481
 11
3009.63400577723
 21
2540.376761273279
  0
LINE
  8
_f-f_
  6
CONTINUOUS
 62
    7
 10
3009.63400577723
 20
2540.376761273279
 11
3009.4787606746595
 21
2539.6051023607383
  0
LINE
  8
_f-f_
  6
CONTINUOUS
 62
    7
 10
3009.4787606746595
 20
2539.6051023607383
 11
3009.3469423553956
 21
2538.8263806553241
  0
LINE
  8
_f-f_
  6
CONTINUOUS
 62
    7
 10
3009.3469423553956
 20
2538.8263806553241
 11
3009.2385508194252
 21
2538.0405961570382
  0
LINE
  8
_f-f_
  6
CONTINUOUS
 62
    7
 10
3009.2385508194252
 20
2538.0405961570382
 11
3009.1535860667627
 21
2537.2477488658792
  0
LINE
  8
_f-f_
  6
CONTINUOUS
 62
    7
 10
3031.1716029603754
 20
2598.5580021622059
 11
3010.4892540204946
 21
2543.39276899472
  0
LINE
  8
_f-f_
  6
CONTINUOUS
 62
    7
 10
3054.1506298357467
 20
2626.7576954802662
 11
3050.3021012881563
 21
2624.2484557370117
  0
LINE
  8
_f-f_
  6
CONTINUOUS
 62
    7
 10
3050.3021012881563
 20
2624.2484557370117
 11
3046.7324727943246
 21
2621.4490097304706
  0
LINE
  8
_f-f_
  6
CONTINUOUS
 62
    7
 10
3046.7324727943246
 20
2621.4490097304706
 11
3043.4417443542598
 21
2618.359357460643
  0
LINE
  8
_f-f_
  6
CONTINUOUS
 62
    7
 10
3043.4417443542598
 20
2618.359357460643
 11
3040.4299159679558
 21
2614.9794989275288
  0
LINE
  8
_f-f_
  6
CONTINUOUS
 62
    7
 10
3040.4299159679558
 20
2614.9794989275288
 11
3037.6969876354178
 21
2611.3094341311285
  0
LINE
  8
_f-f_
  6
CONTINUOUS
 62
    7
 10
3037.6969876354178
 20
2611.3094341311285
 11
3035.2429593566394
 21
2607.3491630714407
  0
LINE
  8
_f-f_
  6
CONTINUOUS
 62
    7
 10
3035.2429593566394
 20
2607.3491630714407
 11
3033.0678311316274
 21
2603.0986857484668
  0
LINE
  8
_f-f_
  6
CONTINUOUS
 62
    7
 10
3033.0678311316274
 20
2603.0986857484668
 11
3031.1716029603826
 21
2598.5580021622072
  0
LINE
  8
_f-f_
  6
CONTINUOUS
 62
    7
 10
3102.2182070881877
 20
2655.2529135692726
 11
3054.1506298357467
 21
2626.7576954802666
  0
LINE
  8
_f-f_
  6
CONTINUOUS
 62
    7
 10
3146.2639358979632
 20
2670.5607896569063
 11
3140.4527641626969
 21
2669.6928509869285
  0
LINE
  8
_f-f_
  6
CONTINUOUS
 62
    7
 10
3140.4527641626969
 20
2669.6928509869285
 11
3134.7288654657291
 21
2668.5261849338158
  0
LINE
  8
_f-f_
  6
CONTINUOUS
 62
    7
 10
3134.7288654657291
 20
2668.5261849338158
 11
3129.0922398070593
 21
2667.0607914975653
  0
LINE
  8
_f-f_
  6
CONTINUOUS
 62
    7
 10
3129.0922398070593
 20
2667.0607914975653
 11
3123.542887186687
 21
2665.2966706781799
  0
LINE
  8
_f-f_
  6
CONTINUOUS
 62
    7
 10
3123.542887186687
 20
2665.2966706781799
 11
3118.0808076046142
 21
2663.2338224756568
  0
LINE
  8
_f-f_
  6
CONTINUOUS
 62
    7
 10
3118.0808076046142
 20
2663.2338224756568
 11
3112.7060010608379
 21
2660.8722468899978
  0
LINE
  8
_f-f_
  6
CONTINUOUS
 62
    7
 10
3112.7060010608379
 20
2660.8722468899978
 11
3107.4184675553602
 21
2658.2119439212029
  0
LINE
  8
_f-f_
  6
CONTINUOUS
 62
    7
 10
3107.4184675553602
 20
2658.2119439212029
 11
3102.2182070881877
 21
2655.2529135692712
  0
LINE
  8
_f-f_
  6
CONTINUOUS
 62
    7
 10
3192.4371457300495
 20
2664.0498764720624
 11
3186.7632211210635
 21
2665.9485994855004
  0
LINE
  8
_f-f_
  6
CONTINUOUS
 62
    7
 10
3186.7632211210635
 20
2665.9485994855004
 11
3181.0613746206486
 21
2667.5373628231291
  0
LINE
  8
_f-f_
  6
CONTINUOUS
 62
    7
 10
3181.0613746206486
 20
2667.5373628231291
 11
3175.3316062287972
 21
2668.8161664849486
  0
LINE
  8
_f-f_
  6
CONTINUOUS
 62
    7
 10
3175.3316062287972
 20
2668.8161664849486
 11
3169.5739159455024
 21
2669.7850104709587
  0
LINE
  8
_f-f_
  6
CONTINUOUS
 62
    7
 10
3169.5739159455024
 20
2669.7850104709587
 11
3163.7883037707707
 21
2670.4438947811595
  0
LINE
  8
_f-f_
  6
CONTINUOUS
 62
    7
 10
3163.7883037707707
 20
2670.4438947811595
 11
3157.9747697046096
 21
2670.7928194155511
  0
LINE
  8
_f-f_
  6
CONTINUOUS
 62
    7
 10
3157.9747697046096
 20
2670.7928194155511
 11
3152.1333137470042
 21
2670.8317843741333
  0
LINE
  8
_f-f_
  6
CONTINUOUS
 62
    7
 10
3152.1333137470042
 20
2670.8317843741333
 11
3146.2639358979632
 21
2670.5607896569059
  0
LINE
  8
_f-f_
  6
CONTINUOUS
 62
    7
 10
3245.1039395503303
 20
2645.376947790387
 11
3192.4371457300495
 21
2664.0498764720624
  0
LINE
  8
_f-f_
  6
CONTINUOUS
 62
    7
 10
3273.0976643175572
 20
2622.1474460086401
 11
3270.359997936006
 21
2626.2362932167507
  0
LINE
  8
_f-f_
  6
CONTINUOUS
 62
    7
 10
3270.359997936006
 20
2626.2362932167507
 11
3267.4047460646375
 21
2629.9865234290346
  0
LINE
  8
_f-f_
  6
CONTINUOUS
 62
    7
 10
3267.4047460646375
 20
2629.9865234290346
 11
3264.2319087034539
 21
2633.3981366454927
  0
LINE
  8
_f-f_
  6
CONTINUOUS
 62
    7
 10
3264.2319087034539
 20
2633.3981366454927
 11
3260.8414858524529
 21
2636.4711328661242
  0
LINE
  8
_f-f_
  6
CONTINUOUS
 62
    7
 10
3260.8414858524529
 20
2636.4711328661242
 11
3257.2334775116447
 21
2639.205512090929
  0
LINE
  8
_f-f_
  6
CONTINUOUS
 62
    7
 10
3257.2334775116447
 20
2639.205512090929
 11
3253.4078836810204
 21
2641.6012743199076
  0
LINE
  8
_f-f_
  6
CONTINUOUS
 62
    7
 10
3253.4078836810204
 20
2641.6012743199076
 11
3249.364704360587
 21
2643.65841955306
  0
LINE
  8
_f-f_
  6
CONTINUOUS
 62
    7
 10
3249.364704360587
 20
2643.65841955306
 11
3245.1039395503303
 21
2645.3769477903861
  0
LINE
  8
_f-f_
  6
CONTINUOUS
 62
    7
 10
3304.0470941282451
 20
2572.0166640230391
 11
3273.0976643175572
 21
2622.1474460086401
  0
LINE
  8
_f-f_
  6
CONTINUOUS
 62
    7
 10
3306.5446799977121
 20
2566.2454123311495
 11
3306.30815577255
 21
2567.0069122505242
  0
LINE
  8
_f-f_
  6
CONTINUOUS
 62
    7
 10
3306.30815577255
 20
2567.0069122505242
 11
3306.0500104021025
 21
2567.7569568962163
  0
LINE
  8
_f-f_
  6
CONTINUOUS
 62
    7
 10
3306.0500104021025
 20
2567.7569568962163
 11
3305.7702438863612
 21
2568.4955462682256
  0
LINE
  8
_f-f_
  6
CONTINUOUS
 62
    7
 10
3305.7702438863612
 20
2568.4955462682256
 11
3305.4688562253195
 21
2569.2226803665535
  0
LINE
  8
_f-f_
  6
CONTINUOUS
 62
    7
 10
3305.4688562253195
 20
2569.2226803665535
 11
3305.1458474189903
 21
2569.9383591911983
  0
LINE
  8
_f-f_
  6
CONTINUOUS
 62
    7
 10
3305.1458474189903
 20
2569.9383591911983
 11
3304.8012174673695
 21
2570.6425827421608
  0
LINE
  8
_f-f_
  6
CONTINUOUS
 62
    7
 10
3304.8012174673695
 20
2570.6425827421608
 11
3304.4349663704538
 21
2571.3353510194411
  0
LINE
  8
_f-f_
  6
CONTINUOUS
 62
    7
 10
3304.4349663704538
 20
2571.3353510194411
 11
3304.0470941282451
 21
2572.0166640230391
  0
LINE
  8
_f-f_
  6
CONTINUOUS
 62
    7
 10
3307.3780035431605
 20
2562.3415403331355
 11
3307.3059822961272
 21
2562.837436494558
  0
LINE
  8
_f-f_
  6
CONTINUOUS
 62
    7
 10
3307.3059822961272
 20
2562.837436494558
 11
3307.2247769930523
 21
2563.3310720383611
  0
LINE
  8
_f-f_
  6
CONTINUOUS
 62
    7
 10
3307.2247769930523
 20
2563.3310720383611
 11
3307.1343876339424
 21
2563.8224469645429
  0
LINE
  8
_f-f_
  6
CONTINUOUS
 62
    7
 10
3307.1343876339424
 20
2563.8224469645429
 11
3307.0348142187777
 21
2564.3115612731044
  0
LINE
  8
_f-f_
  6
CONTINUOUS
 62
    7
 10
3307.0348142187777
 20
2564.3115612731044
 11
3306.9260567475771
 21
2564.7984149640452
  0
LINE
  8
_f-f_
  6
CONTINUOUS
 62
    7
 10
3306.9260567475771
 20
2564.7984149640452
 11
3306.8081152203354
 21
2565.2830080373642
  0
LINE
  8
_f-f_
  6
CONTINUOUS
 62
    7
 10
3306.8081152203354
 20
2565.2830080373642
 11
3306.6809896370441
 21
2565.7653404930647
  0
LINE
  8
_f-f_
  6
CONTINUOUS
 62
    7
 10
3306.6809896370441
 20
2565.7653404930647
 11
3306.5446799977121
 21
2566.2454123311431
  0
LINE
  8
_f-f_
  6
CONTINUOUS
 62
    7
 10
3309.0116395378914
 20
2552.1457192027219
 11
3307.3780035431605
 21
2562.3415403331255
  0
LINE
  8
_f-f_
  6
CONTINUOUS
 62
    7
 10
3309.5998420225351
 20
2549.8925760507473
 11
3309.235097567207
 21
2552.1675078872695
  0
LINE
  8
_f-f_
  6
CONTINUOUS
 62
    7
 10
3309.3761465557882
 20
2549.8707642144286
 11
3309.5998420225351
 21
2549.8925760507473
  0
LINE
  8
_f-f_
  6
CONTINUOUS
 62
    7
 10
3311.5321302065836
 20
2536.4148757946846
 11
3309.3761465557882
 21
2549.8707642144286
  0
LINE
  8
_0-3_âh__âÇ
  6
CONTINUOUS
 62
    7
 10
3021.0893110434313
 20
2528.0276565268382
 11
3296.6148872221288
 21
2554.8932826237638
  0
POINT
  8
_0-3_âh__âÇ
 62
    7
 10
3021.0893110434313
 20
2528.0276565268382
  0
LINE
  8
_0-3_âh__âÇ
  6
CONTINUOUS
 62
    7
 10
3180.9834083403093
 20
2552.2965627765079
 11
3237.1024552133799
 21
2632.5802554921538
  0
LINE
  8
_0-3_âh__âÇ
  6
CONTINUOUS
 62
    7
 10
3282.147492654386
 20
2561.0073895033161
 11
3180.9834083403093
 21
2552.2965627765079
  0
LINE
  8
_0-3_âh__âÇ
  6
CONTINUOUS
 62
    7
 10
3280.9753702717917
 20
2568.3106442334092
 11
3280.0066068029819
 21
2573.1461589210539
  0
LINE
  8
_0-3_âh__âÇ
  6
CONTINUOUS
 62
    7
 10
3282.147492654386
 20
2561.0073895033161
 11
3281.8037958043037
 21
2563.4491201832793
  0
LINE
  8
_0-3_âh__âÇ
  6
CONTINUOUS
 62
    7
 10
3269.6558029605421
 20
2598.0054396313753
 11
3262.1818847640948
 21
2609.2379918987817
  0
LINE
  8
_0-3_âh__âÇ
  6
CONTINUOUS
 62
    7
 10
3281.8037958043037
 20
2563.4491201832793
 11
3280.9753702717917
 21
2568.3106442334092
  0
LINE
  8
_0-3_âh__âÇ
  6
CONTINUOUS
 62
    7
 10
3243.2500158170933
 20
2628.3875899119089
 11
3237.1024552133799
 21
2632.5802554921538
  0
LINE
  8
_0-3_âh__âÇ
  6
CONTINUOUS
 62
    7
 10
3253.331399944223
 20
2619.421242956294
 11
3243.2500158170933
 21
2628.3875899119089
  0
LINE
  8
_0-3_âh__âÇ
  6
CONTINUOUS
 62
    7
 10
3262.1818847640948
 20
2609.2379918987817
 11
3253.331399944223
 21
2619.421242956294
  0
LINE
  8
_0-3_âh__âÇ
  6
CONTINUOUS
 62
    7
 10
3275.6301436898407
 20
2585.9084591611363
 11
3269.6558029605421
 21
2598.0054396313753
  0
LINE
  8
_0-3_âh__âÇ
  6
CONTINUOUS
 62
    7
 10
3280.0065771771165
 20
2573.1461508441189
 11
3275.6301436898407
 21
2585.9084591611363
  0
LINE
  8
_0-3_âh__âÇ
  6
CONTINUOUS
 62
    7
 10
3488.7181030300758
 20
2418.6981632867542
 11
3451.1663067991594
 21
2415.7276585302129
  0
LINE
  8
_0-3_âh__âÇ
  6
CONTINUOUS
 62
    7
 10
3216.5431884719051
 20
1887.5719096840771
 11
3165.5196447885078
 21
1867.0390582019195
  0
LINE
  8
_0-3_âh__âÇ
  6
CONTINUOUS
 62
    7
 10
3197.8769598517592
 20
1933.9569493962561
 11
3146.8534161683547
 21
1913.4240979140984
  0
LINE
  8
_0-3_âh__âÇ
  6
CONTINUOUS
 62
    7
 10
3155.8871860470581
 20
1917.0594599813489
 11
3174.5534146671835
 21
1870.6744202691618
  0
LINE
  8
_0-3_âh__âÇ
  6
CONTINUOUS
 62
    7
 10
3155.8871860470581
 20
1917.0594599813489
 11
3165.0191469156539
 21
1904.4903941433674
  0
LINE
  8
_0-3_âh__âÇ
  6
CONTINUOUS
 62
    7
 10
3165.0191469156539
 20
1904.4903941433674
 11
3157.5111632266321
 21
1901.6083492295211
  0
LINE
  8
_0-3_âh__âÇ
  6
CONTINUOUS
 62
    7
 10
3157.5111632266321
 20
1901.6083492295211
 11
3155.8871860470581
 21
1917.0594599813489
  0
LINE
  8
_0-3_âh__âÇ
  6
CONTINUOUS
 62
    7
 10
3174.5534146671835
 20
1870.6744202691618
 11
3165.4214537985949
 21
1883.2434861071438
  0
LINE
  8
_0-3_âh__âÇ
  6
CONTINUOUS
 62
    7
 10
3165.4214537985949
 20
1883.2434861071438
 11
3172.9294374876099
 21
1886.1255310209895
  0
LINE
  8
_0-3_âh__âÇ
  6
CONTINUOUS
 62
    7
 10
3172.9294374876099
 20
1886.1255310209895
 11
3174.5534146671835
 21
1870.6744202691618
  0
LINE
  8
_0-3_âh__âÇ
  6
CONTINUOUS
 62
    7
 10
3347.4819927124827
 20
1562.9873747996796
 11
3296.4584490290849
 21
1542.454523317522
  0
LINE
  8
_0-3_âh__âÇ
  6
CONTINUOUS
 62
    7
 10
3328.8157640923364
 20
1609.3724145118583
 11
3277.7922204089318
 21
1588.8395630297007
  0
LINE
  8
_0-3_âh__âÇ
  6
CONTINUOUS
 62
    7
 10
3286.8259902876352
 20
1592.4749250969514
 11
3295.9579511562242
 21
1579.9058592589697
  0
LINE
  8
_0-3_âh__âÇ
  6
CONTINUOUS
 62
    7
 10
3295.9579511562242
 20
1579.9058592589697
 11
3288.4499674672093
 21
1577.023814345124
  0
LINE
  8
_0-3_âh__âÇ
  6
CONTINUOUS
 62
    7
 10
3288.4499674672093
 20
1577.023814345124
 11
3286.8259902876352
 21
1592.4749250969514
  0
LINE
  8
_0-3_âh__âÇ
  6
CONTINUOUS
 62
    7
 10
3305.4922189077606
 20
1546.0898853847643
 11
3296.3602580391648
 21
1558.6589512227463
  0
LINE
  8
_0-3_âh__âÇ
  6
CONTINUOUS
 62
    7
 10
3296.3602580391648
 20
1558.6589512227463
 11
3303.8682417281871
 21
1561.5409961365917
  0
LINE
  8
_0-3_âh__âÇ
  6
CONTINUOUS
 62
    7
 10
3303.8682417281871
 20
1561.5409961365917
 11
3305.4922189077606
 21
1546.0898853847643
  0
LINE
  8
_0-3_âh__âÇ
  6
CONTINUOUS
 62
    7
 10
3377.6429733251916
 20
2006.2982371573121
 11
3389.8126319207349
 21
1989.5481390881012
  0
LINE
  8
_0-3_âh__âÇ
  6
CONTINUOUS
 62
    7
 10
3389.8126319207349
 20
1989.5481390881012
 11
3379.8071577897108
 21
1985.7073974157238
  0
LINE
  8
_0-3_âh__âÇ
  6
CONTINUOUS
 62
    7
 10
3379.8071577897108
 20
1985.7073974157238
 11
3377.6429733251916
 21
2006.2982371573121
  0
LINE
  8
_0-3_âh__âÇ
  6
CONTINUOUS
 62
    7
 10
3526.9728022865365
 20
1635.217919459951
 11
3514.8031436910005
 21
1651.9680175291619
  0
LINE
  8
_0-3_âh__âÇ
  6
CONTINUOUS
 62
    7
 10
3514.8031436910005
 20
1651.9680175291619
 11
3524.8086178220233
 21
1655.8087592015397
  0
LINE
  8
_0-3_âh__âÇ
  6
CONTINUOUS
 62
    7
 10
3524.8086178220233
 20
1655.8087592015397
 11
3526.9728022865365
 21
1635.217919459951
  0
LINE
  8
_0-3_âh__âÇ
  6
CONTINUOUS
 62
    7
 10
3112.7000762240041
 20
2276.9569493962558
 11
3124.8697348195469
 21
2260.2068513270447
  0
LINE
  8
_0-3_âh__âÇ
  6
CONTINUOUS
 62
    7
 10
3124.8697348195469
 20
2260.2068513270447
 11
3114.8642606885237
 21
2256.3661096546675
  0
LINE
  8
_0-3_âh__âÇ
  6
CONTINUOUS
 62
    7
 10
3114.8642606885237
 20
2256.3661096546675
 11
3112.7000762240041
 21
2276.9569493962558
  0
LINE
  8
_0-3_âh__âÇ
  6
CONTINUOUS
 62
    7
 10
3262.0299051853553
 20
1905.8766316988945
 11
3249.8602465898125
 21
1922.6267297681056
  0
LINE
  8
_0-3_âh__âÇ
  6
CONTINUOUS
 62
    7
 10
3249.8602465898125
 20
1922.6267297681056
 11
3259.8657207208357
 21
1926.4674714404832
  0
LINE
  8
_0-3_âh__âÇ
  6
CONTINUOUS
 62
    7
 10
3259.8657207208357
 20
1926.4674714404832
 11
3262.0299051853553
 21
1905.8766316988945
  0
LINE
  8
_0-3_âh__âÇ
  6
CONTINUOUS
 62
    7
 10
3446.6429733251916
 20
1656.7883448395467
 11
3458.8126319207345
 21
1640.0382467703355
  0
LINE
  8
_0-3_âh__âÇ
  6
CONTINUOUS
 62
    7
 10
3458.8126319207345
 20
1640.0382467703355
 11
3448.8071577897113
 21
1636.1975050979577
  0
LINE
  8
_0-3_âh__âÇ
  6
CONTINUOUS
 62
    7
 10
3448.8071577897113
 20
1636.1975050979577
 11
3446.6429733251916
 21
1656.7883448395467
  0
LINE
  8
_0-3_âh__âÇ
  6
CONTINUOUS
 62
    7
 10
3488.9884637588457
 20
1380.1137453436706
 11
3483.6298069966415
 21
1400.1125246405456
  0
LINE
  8
_0-3_âh__âÇ
  6
CONTINUOUS
 62
    7
 10
3483.6298069966415
 20
1400.1125246405456
 11
3494.3471205210567
 21
1400.1125246405456
  0
LINE
  8
_0-3_âh__âÇ
  6
CONTINUOUS
 62
    7
 10
3494.3471205210567
 20
1400.1125246405456
 11
3488.9884637588457
 21
1380.1137453436706
  0
LINE
  8
_0-3_âh__âÇ
  6
CONTINUOUS
 62
    7
 10
3215.046523618626
 20
2264.2464328562064
 11
3195.7260113677157
 21
2290.8388366125973
  0
LINE
  8
_0-3_âh__âÇ
  6
CONTINUOUS
 62
    7
 10
3195.7260113677157
 20
2290.8388366125973
 11
3211.6106710734075
 21
2296.9363861823877
  0
LINE
  8
_0-3_âh__âÇ
  6
CONTINUOUS
 62
    7
 10
3211.6106710734075
 20
2296.9363861823877
 11
3215.046523618626
 21
2264.2464328562064
  0
LINE
  8
_0-3_âh__âÇ
  6
CONTINUOUS
 62
    7
 10
3158.85209913278
 20
2541.4604695753014
 11
3170.0943076492604
 21
2510.5727555314857
  0
LINE
  8
_0-3_âh__âÇ
  6
CONTINUOUS
 62
    7
 10
3170.0943076492604
 20
2510.5727555314857
 11
3153.1442802807846
 21
2509.0898202902904
  0
LINE
  8
_0-3_âh__âÇ
  6
CONTINUOUS
 62
    7
 10
3153.1442802807846
 20
2509.0898202902904
 11
3158.85209913278
 21
2541.4604695753014
  0
LINE
  8
_0-3_âh__âÇ
  6
CONTINUOUS
 62
    7
 10
2353.4216794552099
 20
1530.2787186865341
 11
2724.3118570932902
 21
1530.2787186865341
  0
LINE
  8
_0-3_âh__âÇ
  6
CONTINUOUS
 62
    7
 10
2724.3118570932902
 20
1530.2787186865341
 11
2724.3118570932902
 21
1490.2787186865341
  0
LINE
  8
_0-3_âh__âÇ
  6
CONTINUOUS
 62
    7
 10
2724.3118570932902
 20
1490.2787186865341
 11
2353.4216794552099
 21
1490.2787186865341
  0
LINE
  8
_0-3_âh__âÇ
  6
CONTINUOUS
 62
    7
 10
2353.4216794552099
 20
1490.2787186865341
 11
2353.4216794552099
 21
1530.2787186865341
  0
LINE
  8
_0-3_âh__âÇ
  6
CONTINUOUS
 62
    7
 10
2348.3498530747142
 20
2161.6962134754785
 11
2719.240030712795
 21
2161.6962134754785
  0
LINE
  8
_0-3_âh__âÇ
  6
CONTINUOUS
 62
    7
 10
2719.240030712795
 20
2161.6962134754785
 11
2719.240030712795
 21
2121.6962134754785
  0
LINE
  8
_0-3_âh__âÇ
  6
CONTINUOUS
 62
    7
 10
2719.240030712795
 20
2121.6962134754785
 11
2348.3498530747142
 21
2121.6962134754785
  0
LINE
  8
_0-3_âh__âÇ
  6
CONTINUOUS
 62
    7
 10
2348.3498530747142
 20
2121.6962134754785
 11
2348.3498530747142
 21
2161.6962134754785
  0
TEXT
  8
_0-3_âh__âÇ
 62
    7
 10
2883.8635070951032
 20
1716.9846233618596
 40
23.50838539523302
 41
1.1764705882352937
 50
0
  1
â`âàü[âuÅdé╦Éíû@
  0
LINE
  8
_0-3_âh__âÇ
  6
CONTINUOUS
 62
    7
 10
3116.4648791765189
 20
1867.3374766865152
 11
3013.0453348984356
 21
1747.9983502946186
  0
TEXT
  8
_0-3_âh__âÇ
 62
    7
 10
3186.7009312809942
 20
2401.5256164880093
 40
27.147352430555571
 41
1.1764705882352928
 50
0
  1
300
  0
TEXT
  8
_0-3_âh__âÇ
 62
    7
 10
2987.861675485658
 20
2191.0555683691232
 40
27.147352430555571
 41
1.1764705882352948
 50
0
  1
50
  0
TEXT
  8
_0-3_âh__âÇ
 62
    7
 10
3172.4144711113613
 20
2135.7155029186451
 40
27.147352430555571
 41
1.1764705882352928
 50
0
  1
400
  0
TEXT
  8
_0-3_âh__âÇ
 62
    7
 10
3264.4556048216073
 20
2143.7668717605229
 40
24.968374593637041
 41
1.1764705882352939
 50
21.920798980000136
  1
âË245
  0
TEXT
  8
_0-3_âh__âÇ
 62
    7
 10
3119.8707899456526
 20
1868.2385199080011
 40
27.147352430555571
 41
1.1764705882352948
 50
0
  1
50
  0
TEXT
  8
_0-3_âh__âÇ
 62
    7
 10
3456.6087655601705
 20
1839.4155691525439
 40
27.147352430555571
 41
1.1764705882352964
 50
0
  1
400
  0
TEXT
  8
_0-3_âh__âÇ
 62
    7
 10
3252.6247260537402
 20
1543.6280433998731
 40
27.147352430555564
 41
1.1764705882352953
 50
0
  1
50
  0
TEXT
  8
_0-3_âh__âÇ
 62
    7
 10
3491.8770771131335
 20
1574.7092494716628
 40
27.147352430555571
 41
1.1764705882352964
 50
0
  1
300
  0
TEXT
  8
_0-3_âh__âÇ
 62
    7
 10
3343.5358427737674
 20
1459.5624863172688
 40
24.432617187500011
 41
1.1764705882352939
 50
12.935984840000009
  1
ë±ô]Ä®ì¦É┌æ▒0üïü`ü@30üï
  0
TEXT
  8
_0-3_âh__âÇ
 62
    7
 10
3040.7970098643154
 20
2283.7248575047324
 40
24.432617187500089
 41
1.1764705882352908
 50
13.815652269999998
  1
ë±ô]Ä®ì¦É┌æ▒0üïü`ü@30üï
  0
LINE
  8
_f-f_
  6
CONTINUOUS
 62
    7
 10
3371.8118085642395
 20
1380.1137453436706
 11
3624.81180856424
 21
1380.1137453436706
  0
LINE
  8
_f-f_
  6
CONTINUOUS
 62
    7
 10
3366.81180856424
 20
1268.1137453436704
 11
3629.81180856424
 21
1268.1137453436704
  0
LINE
  8
_f-f_
  6
CONTINUOUS
 62
    7
 10
3340.81180856424
 20
1259.1137453436706
 11
3341.81180856424
 21
1259.1137453436706
  0
LINE
  8
_f-f_
  6
CONTINUOUS
 62
    7
 10
3654.81180856424
 20
1259.1137453436706
 11
3655.81180856424
 21
1259.1137453436706
  0
LINE
  8
_f-f_
  6
CONTINUOUS
 62
    7
 10
3652.81180856424
 20
1252.1137453436704
 11
3652.81180856424
 21
1251.1137453436706
  0
LINE
  8
_f-f_
  6
CONTINUOUS
 62
    7
 10
3343.8118085642395
 20
1252.1137453436704
 11
3343.8118085642395
 21
1251.1137453436706
  0
LINE
  8
_f-f_
  6
CONTINUOUS
 62
    7
 10
3341.81180856424
 20
1253.1137453436706
 11
3341.81180856424
 21
1259.1137453436706
  0
ARC
  8
_f-f_
  6
CONTINUOUS
 62
    7
 10
3342.81180856424
 20
1253.1137453436706
 40
1
 50
180
 51
270
  0
ARC
  8
_f-f_
  6
CONTINUOUS
 62
    7
 10
3342.81180856424
 20
1253.1137453436706
 40
2
 50
180
 51
270
  0
LINE
  8
_f-f_
  6
CONTINUOUS
 62
    7
 10
3340.81180856424
 20
1253.1137453436706
 11
3340.81180856424
 21
1259.1137453436706
  0
LINE
  8
_f-f_
  6
CONTINUOUS
 62
    7
 10
3654.81180856424
 20
1253.1137453436706
 11
3654.81180856424
 21
1259.1137453436706
  0
ARC
  8
_f-f_
  6
CONTINUOUS
 62
    7
 10
3653.8118085642395
 20
1253.1137453436706
 40
1
 50
270
 51
0
  0
ARC
  8
_f-f_
  6
CONTINUOUS
 62
    7
 10
3653.8118085642395
 20
1253.1137453436706
 40
2
 50
270
 51
0
  0
LINE
  8
_f-f_
  6
CONTINUOUS
 62
    7
 10
3655.81180856424
 20
1259.1137453436706
 11
3655.81180856424
 21
1253.1137453436706
  0
LINE
  8
_f-f_
  6
CONTINUOUS
 62
    7
 10
3371.8118085642395
 20
1380.1137453436706
 11
3367.81180856424
 21
1268.1137453436704
  0
LINE
  8
_f-f_
  6
CONTINUOUS
 62
    7
 10
3628.8118085642395
 20
1268.1137453436704
 11
3624.81180856424
 21
1380.1137453436706
  0
LINE
  8
_f-f_
  6
CONTINUOUS
 62
    7
 10
3628.8118085642395
 20
1268.1137453436704
 11
3628.8118085642395
 21
1251.1137453436706
  0
LINE
  8
_f-f_
  6
CONTINUOUS
 62
    7
 10
3628.8118085642395
 20
1251.1137453436706
 11
3653.8118085642395
 21
1251.1137453436706
  0
LINE
  8
_f-f_
  6
CONTINUOUS
 62
    7
 10
3629.81180856424
 20
1268.1137453436704
 11
3629.81180856424
 21
1252.1137453436704
  0
LINE
  8
_f-f_
  6
CONTINUOUS
 62
    7
 10
3653.8118085642395
 20
1252.1137453436704
 11
3629.81180856424
 21
1252.1137453436704
  0
LINE
  8
_f-f_
  6
CONTINUOUS
 62
    7
 10
3367.8118085642404
 20
1268.1137453436704
 11
3367.8118085642404
 21
1251.1137453436706
  0
LINE
  8
_f-f_
  6
CONTINUOUS
 62
    7
 10
3342.81180856424
 20
1251.1137453436706
 11
3367.8118085642404
 21
1251.1137453436706
  0
LINE
  8
_f-f_
  6
CONTINUOUS
 62
    7
 10
3366.81180856424
 20
1268.1137453436704
 11
3366.81180856424
 21
1252.1137453436704
  0
LINE
  8
_f-f_
  6
CONTINUOUS
 62
    7
 10
3342.81180856424
 20
1252.1137453436704
 11
3366.81180856424
 21
1252.1137453436704
  0
LINE
  8
_f-f_
  6
CONTINUOUS
 62
    7
 10
3628.8118085642395
 20
1251.1137453436706
 11
3367.8118085642404
 21
1251.1137453436706
  0
LINE
  8
_f-f_
  6
CONTINUOUS
 62
    7
 10
3620.8118085642645
 20
1380.1137453436716
 11
3375.8118085642645
 21
1380.1137453436697
  0
LINE
  8
_f-f_
  6
CONTINUOUS
 62
    7
 10
3375.8118085642645
 20
1383.1137453436704
 11
3378.31180856424
 21
1383.1137453436704
  0
LINE
  8
_f-f_
  6
CONTINUOUS
 62
    7
 10
3618.31180856424
 20
1383.1137453436704
 11
3620.8118085642645
 21
1383.1137453436704
  0
LINE
  8
_f-f_
  6
CONTINUOUS
 62
    7
 10
3689.863628705707
 20
1253.1701453317955
 11
3689.8408150279192
 21
1253.1701453317955
  0
LINE
  8
_0-3_âh__âÇ
  6
CONTINUOUS
 62
    7
 10
3985.0841025893801
 20
1261.1137453436706
 11
3995.440483271746
 21
1263.1137453436704
  0
LINE
  8
_0-3_âh__âÇ
  6
CONTINUOUS
 62
    7
 10
3995.440483271746
 20
1263.1137453436704
 11
3980.440483271746
 21
1267.1137453436704
  0
LINE
  8
_0-3_âh__âÇ
  6
CONTINUOUS
 62
    7
 10
3980.440483271746
 20
1267.1137453436704
 11
3987.940483271746
 21
1269.1137453436706
  0
LINE
  8
_0-3_âh__âÇ
  6
CONTINUOUS
 62
    7
 10
3987.940483271746
 20
1269.1137453436706
 11
3983.8335103813133
 21
1271.1137453436706
  0
LINE
  8
_0-3_âh__âÇ
  6
CONTINUOUS
 62
    7
 10
3987.940483271746
 20
1305.3616920721652
 11
3987.940483271746
 21
1269.1137453436706
  0
LINE
  8
_0-3_âh__âÇ
  6
CONTINUOUS
 62
    7
 10
3987.940483271746
 20
1269.1137453436706
 11
3980.440483271746
 21
1267.1137453436704
  0
LINE
  8
_0-3_âh__âÇ
  6
CONTINUOUS
 62
    7
 10
3980.440483271746
 20
1267.1137453436704
 11
3995.440483271746
 21
1263.1137453436704
  0
LINE
  8
_0-3_âh__âÇ
  6
CONTINUOUS
 62
    7
 10
3995.440483271746
 20
1263.1137453436704
 11
3985.0841025893801
 21
1261.1137453436706
  0
LINE
  8
_0-3_âh__âÇ
  6
CONTINUOUS
 62
    7
 10
3107.0971282577789
 20
1305.3616920721652
 11
3107.0971282577789
 21
1269.1137453436706
  0
LINE
  8
_0-3_âh__âÇ
  6
CONTINUOUS
 62
    7
 10
3107.0971282577789
 20
1269.1137453436706
 11
3114.5971282577789
 21
1267.1137453436704
  0
LINE
  8
_0-3_âh__âÇ
  6
CONTINUOUS
 62
    7
 10
3114.5971282577789
 20
1267.1137453436704
 11
3099.5971282577789
 21
1263.1137453436704
  0
LINE
  8
_0-3_âh__âÇ
  6
CONTINUOUS
 62
    7
 10
3099.5971282577789
 20
1263.1137453436704
 11
3107.0971282577789
 21
1261.1137453436706
  0
LINE
  8
_0-3_âh__âÇ
  6
CONTINUOUS
 62
    7
 10
3107.0971282577789
 20
1259.1137453436706
 11
3107.0971282577789
 21
1261.1137453436706
  0
LINE
  8
_0-3_âh__âÇ
  6
CONTINUOUS
 62
    7
 10
3107.0971282577789
 20
1261.1137453436706
 11
3099.5971282577789
 21
1263.1137453436704
  0
LINE
  8
_0-3_âh__âÇ
  6
CONTINUOUS
 62
    7
 10
3099.5971282577789
 20
1263.1137453436704
 11
3114.5971282577789
 21
1267.1137453436704
  0
LINE
  8
_0-3_âh__âÇ
  6
CONTINUOUS
 62
    7
 10
3114.5971282577789
 20
1267.1137453436704
 11
3107.0971282577789
 21
1269.1137453436706
  0
LINE
  8
_0-3_âh__âÇ
  6
CONTINUOUS
 62
    7
 10
3107.0971282577789
 20
1269.1137453436706
 11
3108.0027961593491
 21
1271.1137453436706
  0
LINE
  8
_0-3_âh__âÇ
  6
CONTINUOUS
 62
    7
 10
3107.0971282577789
 20
1261.1137453436706
 11
3107.0971282577789
 21
1224.8657986151761
  0
LINE
  8
_0-3_âh__âÇ
  6
CONTINUOUS
 62
    7
 10
3985.0841025893801
 20
1224.8657986151761
 11
3985.0841025893801
 21
1261.1137453436706
  0
LINE
  8
_0-3_âh__âÇ
  6
CONTINUOUS
 62
    7
 10
3236.6142232673919
 20
1576.8287506689699
 11
3055.4526132184528
 21
1707.2651099042059
  0
LINE
  8
_0-3_âh__âÇ
  6
CONTINUOUS
 62
    7
 10
3013.0453348984356
 20
2184.6302651098831
 11
3013.0453348984356
 21
1747.9983502946186
  0
LINE
  8
_0-3_âh__âÇ
  6
CONTINUOUS
 62
    7
 10
3108.0027961593491
 20
1271.1137453436706
 11
3363.31180856424
 21
1271.1137453436706
  0
LINE
  8
_f-f_
  6
CONTINUOUS
 62
    7
 10
3363.31180856424
 20
1271.1137453436706
 11
3363.31180856424
 21
1259.1137453436706
  0
LINE
  8
_0-3_âh__âÇ
  6
CONTINUOUS
 62
    7
 10
3363.31180856424
 20
1259.1137453436706
 11
3107.0971282577789
 21
1259.1137453436706
  0
LINE
  8
_0-3_âh__âÇ
  6
CONTINUOUS
 62
    7
 10
3985.0841025893801
 20
1271.1137453436706
 11
3633.31180856424
 21
1271.1137453436706
  0
LINE
  8
_f-f_
  6
CONTINUOUS
 62
    7
 10
3633.31180856424
 20
1271.1137453436706
 11
3633.31180856424
 21
1259.1137453436706
  0
LINE
  8
_0-3_âh__âÇ
  6
CONTINUOUS
 62
    7
 10
3633.31180856424
 20
1259.1137453436706
 11
3985.0841025893801
 21
1259.1137453436706
  0
LINE
  8
_f-f_
  6
CONTINUOUS
 62
    7
 10
3656.5118085642398
 20
1259.1137453436706
 11
3657.31180856424
 21
1259.1137453436706
  0
POINT
  8
_0-3_âh__âÇ
 62
    7
 10
3340.81180856424
 20
1259.1137453436706
  0
LINE
  8
_0-3_âh__âÇ
  6
CONTINUOUS
 62
    7
 10
3335.589219387944
 20
1240.2243625313431
 11
3307.1229481466107
 21
1223.789353167333
  0
LINE
  8
_0-3_âh__âÇ
  6
CONTINUOUS
 62
    7
 10
3307.1229481466107
 20
1223.789353167333
 11
3302.7192006599253
 21
1240.2243625313431
  0
LINE
  8
_0-3_âh__âÇ
  6
CONTINUOUS
 62
    7
 10
3302.7192006599253
 20
1240.2243625313431
 11
3335.589219387944
 21
1240.2243625313431
  0
LINE
  8
_0-3_âh__âÇ
  6
CONTINUOUS
 62
    7
 10
2807.5835347941575
 20
1162.2243625313433
 11
2990.1170366011611
 21
1162.2243625313433
  0
LINE
  8
_0-3_âh__âÇ
  6
CONTINUOUS
 62
    7
 10
2990.1170366011611
 20
1162.2243625313433
 11
2990.1170366011611
 21
1122.2243625313433
  0
LINE
  8
_0-3_âh__âÇ
  6
CONTINUOUS
 62
    7
 10
2990.1170366011611
 20
1122.2243625313433
 11
2807.5835347941575
 21
1122.2243625313433
  0
LINE
  8
_0-3_âh__âÇ
  6
CONTINUOUS
 62
    7
 10
2807.5835347941575
 20
1122.2243625313433
 11
2807.5835347941575
 21
1162.2243625313433
  0
SOLID
  8
_0-3_âh__âÇ
  6
CONTINUOUS
 62
    8
 10
3070.1991762334919
 20
2648.7809504781844
 11
3038.1716139559776
 21
2641.3868051090139
 12
3038.7654209952939
 22
2658.3912138879641
 13
3038.7654209952939
 23
2658.3912138879641
  0
SOLID
  8
_0-3_âh__âÇ
  6
CONTINUOUS
 62
    8
 10
3022.1151561119746
 20
2432.9569493962563
 11
2993.6488848706408
 21
2416.5219400322458
 12
2989.2451373839554
 22
2432.9569493962563
 13
2989.2451373839554
 23
2432.9569493962563
  0
SOLID
  8
_0-3_âh__âÇ
  6
CONTINUOUS
 62
    8
 10
3104.6429733251916
 20
2406.9569493962558
 11
3083.0783007555851
 21
2382.1496313601169
 12
3073.5637600375539
 22
2396.2555180620025
 13
3073.5637600375539
 23
2396.2555180620025
  0
SOLID
  8
_0-3_âh__âÇ
  6
CONTINUOUS
 62
    8
 10
3158.85209913278
 20
2541.4604695753014
 11
3170.0943076492604
 21
2510.5727555314857
 12
3153.1442802807846
 22
2509.0898202902904
 13
3153.1442802807846
 23
2509.0898202902904
  0
SOLID
  8
_0-3_âh__âÇ
  6
CONTINUOUS
 62
    8
 10
3185.6429733251912
 20
2592.7354518177472
 11
3155.6147170235836
 21
2579.3660107424735
 12
3152.953019999009
 22
2596.1713043629657
 13
3152.953019999009
 23
2596.1713043629657
  0
SOLID
  8
_0-3_âh__âÇ
  6
CONTINUOUS
 62
    8
 10
3215.046523618626
 20
2264.2464328562064
 11
3195.7260113677157
 21
2290.8388366125973
 12
3211.6106710734075
 22
2296.9363861823877
 13
3211.6106710734075
 23
2296.9363861823877
  0
SOLID
  8
_0-3_âh__âÇ
  6
CONTINUOUS
 62
    8
 10
3112.7000762240041
 20
2276.9569493962558
 11
3124.8697348195469
 21
2260.2068513270447
 12
3114.8642606885237
 22
2256.3661096546675
 13
3114.8642606885237
 23
2256.3661096546675
  0
SOLID
  8
_0-3_âh__âÇ
  6
CONTINUOUS
 62
    8
 10
3022.5707515840963
 20
2240.6871824725472
 11
3031.7027124526844
 21
2228.1181166345655
 12
3024.1947287636694
 22
2225.2360717207193
 13
3024.1947287636694
 23
2225.2360717207193
  0
SOLID
  8
_0-3_âh__âÇ
  6
CONTINUOUS
 62
    8
 10
3041.236980204214
 20
2194.3021427603599
 11
3032.1050193356259
 21
2206.8712085983416
 12
3039.61300302464
 22
2209.7532535121877
 13
3039.61300302464
 23
2209.7532535121877
  0
SOLID
  8
_0-3_âh__âÇ
  6
CONTINUOUS
 62
    8
 10
3381.6087046134908
 20
2178.4769176223749
 11
3364.8586065442769
 21
2166.3072590268325
 12
3361.0178648719061
 22
2176.3127331578571
 13
3361.0178648719061
 23
2176.3127331578571
  0
SOLID
  8
_0-3_âh__âÇ
  6
CONTINUOUS
 62
    8
 10
3154.3220100238077
 20
2087.012397383673
 11
3171.0721080930134
 21
2099.1820559792154
 12
3174.9128497653924
 22
2089.1765818481913
 13
3174.9128497653924
 23
2089.1765818481913
  0
SOLID
  8
_0-3_âh__âÇ
  6
CONTINUOUS
 62
    8
 10
3169.6362513564213
 20
2048.9569493962558
 11
3144.8289333202824
 21
2027.3922768266514
 12
3137.3701474525637
 22
2042.6850541447543
 13
3137.3701474525637
 23
2042.6850541447543
  0
SOLID
  8
_0-3_âh__âÇ
  6
CONTINUOUS
 62
    8
 10
3155.8871860470581
 20
1917.0594599813489
 11
3165.0191469156539
 21
1904.4903941433674
 12
3157.5111632266321
 22
1901.6083492295211
 13
3157.5111632266321
 23
1901.6083492295211
  0
SOLID
  8
_0-3_âh__âÇ
  6
CONTINUOUS
 62
    8
 10
3174.5534146671835
 20
1870.6744202691618
 11
3165.4214537985949
 21
1883.2434861071438
 12
3172.9294374876099
 22
1886.1255310209895
 13
3172.9294374876099
 23
1886.1255310209895
  0
SOLID
  8
_0-3_âh__âÇ
  6
CONTINUOUS
 62
    8
 10
3262.0299051853553
 20
1905.8766316988945
 11
3249.8602465898125
 21
1922.6267297681056
 12
3259.8657207208357
 22
1926.4674714404832
 13
3259.8657207208357
 23
1926.4674714404832
  0
SOLID
  8
_0-3_âh__âÇ
  6
CONTINUOUS
 62
    8
 10
3377.6429733251916
 20
2006.2982371573121
 11
3389.8126319207349
 21
1989.5481390881012
 12
3379.8071577897108
 22
1985.7073974157238
 13
3379.8071577897108
 23
1985.7073974157238
  0
SOLID
  8
_0-3_âh__âÇ
  6
CONTINUOUS
 62
    8
 10
3306.7316911454013
 20
1708.2787359028896
 11
3273.9067196356677
 21
1706.5584520410355
 12
3277.4442900085392
 22
1723.2014121316718
 13
3277.4442900085392
 23
1723.2014121316718
  0
SOLID
  8
_0-3_âh__âÇ
  6
CONTINUOUS
 62
    8
 10
3446.6429733251916
 20
1656.7883448395467
 11
3458.8126319207345
 21
1640.0382467703355
 12
3448.8071577897113
 22
1636.1975050979577
 13
3448.8071577897113
 23
1636.1975050979577
  0
SOLID
  8
_0-3_âh__âÇ
  6
CONTINUOUS
 62
    8
 10
3526.9728022865365
 20
1635.217919459951
 11
3514.8031436910005
 21
1651.9680175291619
 12
3524.8086178220233
 22
1655.8087592015397
 13
3524.8086178220233
 23
1655.8087592015397
  0
SOLID
  8
_0-3_âh__âÇ
  6
CONTINUOUS
 62
    8
 10
3286.8259902876352
 20
1592.4749250969514
 11
3295.9579511562242
 21
1579.9058592589697
 12
3288.4499674672093
 22
1577.023814345124
 13
3288.4499674672093
 23
1577.023814345124
  0
SOLID
  8
_0-3_âh__âÇ
  6
CONTINUOUS
 62
    8
 10
3305.4922189077606
 20
1546.0898853847643
 11
3296.3602580391648
 21
1558.6589512227463
 12
3303.8682417281871
 22
1561.5409961365917
 13
3303.8682417281871
 23
1561.5409961365917
  0
SOLID
  8
_0-3_âh__âÇ
  6
CONTINUOUS
 62
    8
 10
3488.9884637588457
 20
1380.1137453436706
 11
3483.6298069966415
 21
1400.1125246405456
 12
3494.3471205210567
 22
1400.1125246405456
 13
3494.3471205210567
 23
1400.1125246405456
  0
SOLID
  8
_0-3_âh__âÇ
  6
CONTINUOUS
 62
    8
 10
3391.6429733251916
 20
1440.9569493962558
 11
3359.1776390723808
 21
1435.8149456006756
 12
3360.9561672221153
 22
1452.7365106093321
 13
3360.9561672221153
 23
1452.7365106093321
  0
SOLID
  8
_0-3_âh__âÇ
  6
CONTINUOUS
 62
    8
 10
3357.8052669685762
 20
1360.9569493962558
 11
3326.9175529247641
 21
1349.7147408797812
 12
3325.4346176835656
 22
1366.6647682482544
 13
3325.4346176835656
 23
1366.6647682482544
  0
SOLID
  8
_0-3_âh__âÇ
  6
CONTINUOUS
 62
    8
 10
3335.589219387944
 20
1240.2243625313431
 11
3307.1229481466107
 21
1223.789353167333
 12
3302.7192006599253
 22
1240.2243625313431
 13
3302.7192006599253
 23
1240.2243625313431
  0
LINE
  8
_0-3_âh__âÇ
  6
CONTINUOUS
 62
    7
 10
3038.4581947266752
 20
2649.5934046446873
 11
2672.6429733251912
 21
2658.9569493962563
  0
LINE
  8
_0-3_âh__âÇ
  6
CONTINUOUS
 62
    7
 10
3154.3495370239125
 20
2587.354042881725
 11
2686.6429733251916
 21
2506.9243880144013
  0
LINE
  8
_0-3_âh__âÇ
  6
CONTINUOUS
 62
    7
 10
3177.0934860109969
 20
2358.5586329689158
 11
3162.0032288469911
 21
2509.8648778605921
  0
LINE
  8
_0-3_âh__âÇ
  6
CONTINUOUS
 62
    7
 10
2991.567069196316
 20
2424.2913819008199
 11
2676.6429733251916
 21
2334.9569493962558
  0
LINE
  8
_0-3_âh__âÇ
  6
CONTINUOUS
 62
    7
 10
3078.512192007975
 20
2388.9191659673115
 11
2723.6429733251912
 21
2143.9569493962558
  0
LINE
  8
_0-3_âh__âÇ
  6
CONTINUOUS
 62
    7
 10
3203.191937599071
 20
2293.7047371810418
 11
3177.093487338248
 21
2358.5586332953071
  0
LINE
  8
_0-3_âh__âÇ
  6
CONTINUOUS
 62
    7
 10
3120.1670762070421
 20
2258.4016698166542
 11
3262.0299051853553
 21
1905.8766316988945
  0
LINE
  8
_0-3_âh__âÇ
  6
CONTINUOUS
 62
    7
 10
3028.1738957573989
 20
2226.7635308190124
 11
3035.633836030911
 21
2208.2257944138946
  0
LINE
  8
_0-3_âh__âÇ
  6
CONTINUOUS
 62
    7
 10
3172.8772896034093
 20
2094.4793973666992
 11
3363.053425033886
 21
2171.0099176393478
  0
LINE
  8
_0-3_âh__âÇ
  6
CONTINUOUS
 62
    7
 10
3141.3256399037477
 20
2034.5750927767531
 11
2723.6429733251912
 21
1822.3913243962561
  0
LINE
  8
_0-3_âh__âÇ
  6
CONTINUOUS
 62
    7
 10
3275.5686983697483
 20
1714.3774472347152
 11
2723.6429733251912
 21
1822.3913243962561
  0
LINE
  8
_0-3_âh__âÇ
  6
CONTINUOUS
 62
    7
 10
3454.1099718621272
 20
1638.2330647048386
 11
3488.9884637588457
 21
1551.5609989988673
  0
LINE
  8
_0-3_âh__âÇ
  6
CONTINUOUS
 62
    7
 10
3385.1099733082287
 20
1987.7429575777103
 11
3519.5058023034994
 21
1653.7731990395503
  0
LINE
  8
_0-3_âh__âÇ
  6
CONTINUOUS
 62
    7
 10
3292.4291344609401
 20
1578.5512734434176
 11
3299.8890747344553
 21
1560.0135370382995
  0
LINE
  8
_0-3_âh__âÇ
  6
CONTINUOUS
 62
    7
 10
3360.0595112160067
 20
1444.2053985771556
 11
2725.6429733251912
 21
1509.4569493962561
  0
LINE
  8
_0-3_âh__âÇ
  6
CONTINUOUS
 62
    7
 10
3488.9884637588457
 20
1551.5609989988673
 11
3488.9884637588457
 21
1400.1125246405456
  0
LINE
  8
_0-3_âh__âÇ
  6
CONTINUOUS
 62
    7
 10
3305.0411324722854
 20
1231.5587950359068
 11
2990.1170366011611
 21
1142.2243625313433
  0
LINE
  8
_0-3_âh__âÇ
  6
CONTINUOUS
 62
    7
 10
2311.6429733246309
 20
1059.4700000000016
 11
2311.6429733246309
 21
2859.4700000000016
  0
LINE
  8
_f-f_
  6
CONTINUOUS
 62
    7
 10
2311.6429733246309
 20
2859.4700000000016
 11
4061.6429733251916
 21
2859.4700000000016
  0
LINE
  8
_0-3_âh__âÇ
  6
CONTINUOUS
 62
    7
 10
4061.6429733251916
 20
2859.4700000000016
 11
4061.6429733251916
 21
1059.4700000000016
  0
LINE
  8
_f-f_
  6
CONTINUOUS
 62
    7
 10
3345.1118085642393
 20
1250.6137453436704
 11
3345.1118085642393
 21
1249.9137453436706
  0
LINE
  8
_f-f_
  6
CONTINUOUS
 62
    7
 10
3345.1118085642393
 20
1250.6137453436704
 11
3647.31180856424
 21
1250.6137453436704
  0
LINE
  8
_f-f_
  6
CONTINUOUS
 62
    7
 10
3647.31180856424
 20
1250.6137453436704
 11
3647.31180856424
 21
1249.9137453436706
  0
LINE
  8
_f-f_
  6
CONTINUOUS
 62
    7
 10
3658.31180856424
 20
1259.1137453436706
 11
3658.31180856424
 21
1250.9137453436706
  0
LINE
  8
_f-f_
  6
CONTINUOUS
 62
    7
 10
3657.5118085642398
 20
1259.1137453436706
 11
3658.31180856424
 21
1259.1137453436706
  0
LINE
  8
_f-f_
  6
CONTINUOUS
 62
    7
 10
3657.5118085642398
 20
1250.9137453436706
 11
3657.5118085642398
 21
1259.1137453436706
  0
ARC
  8
_f-f_
  6
CONTINUOUS
 62
    7
 10
3656.5118085642393
 20
1250.9137453436706
 40
1.8000000000000003
 50
270
 51
0
  0
LINE
  8
_f-f_
  6
CONTINUOUS
 62
    7
 10
3626.3118085642395
 20
1249.1137453436704
 11
3656.5118085642393
 21
1249.1137453436704
  0
LINE
  8
_f-f_
  6
CONTINUOUS
 62
    7
 10
3626.3118085642395
 20
1249.9137453436706
 11
3626.3118085642395
 21
1249.1137453436704
  0
ARC
  8
_f-f_
  6
CONTINUOUS
 62
    7
 10
3656.5118085642393
 20
1250.9137453436706
 40
1
 50
270
 51
0
  0
LINE
  8
_f-f_
  6
CONTINUOUS
 62
    7
 10
3338.31180856424
 20
1259.1137453436706
 11
3339.1118085642393
 21
1259.1137453436706
  0
LINE
  8
_f-f_
  6
CONTINUOUS
 62
    7
 10
3339.1118085642393
 20
1250.9137453436706
 11
3339.1118085642393
 21
1259.1137453436706
  0
ARC
  8
_f-f_
  6
CONTINUOUS
 62
    7
 10
3340.1118085642393
 20
1250.9137453436706
 40
1.8000000000000003
 50
180
 51
270
  0
LINE
  8
_f-f_
  6
CONTINUOUS
 62
    7
 10
3338.31180856424
 20
1259.1137453436706
 11
3338.31180856424
 21
1250.9137453436706
  0
LINE
  8
_f-f_
  6
CONTINUOUS
 62
    7
 10
3340.1118085642393
 20
1249.1137453436704
 11
3370.3118085642391
 21
1249.1137453436704
  0
LINE
  8
_f-f_
  6
CONTINUOUS
 62
    7
 10
3370.3118085642391
 20
1249.9137453436706
 11
3370.3118085642391
 21
1249.1137453436704
  0
ARC
  8
_f-f_
  6
CONTINUOUS
 62
    7
 10
3340.1118085642393
 20
1250.9137453436706
 40
1
 50
180
 51
270
  0
LINE
  8
_f-f_
  6
CONTINUOUS
 62
    7
 10
3656.5118085642393
 20
1249.9137453436706
 11
3340.1118085642393
 21
1249.9137453436706
  0
LINE
  8
_f-f_
  6
CONTINUOUS
 62
    7
 10
3658.3118085641336
 20
1229.020990250945
 11
3658.3118085641336
 21
1121.5052556663168
  0
LINE
  8
_0-3_âh__âÇ
  6
CONTINUOUS
 62
    7
 10
3338.3118085641681
 20
1121.5052556663168
 11
3358.3105878610431
 21
1126.8639124285228
  0
LINE
  8
_0-3_âh__âÇ
  6
CONTINUOUS
 62
    7
 10
3358.3105878610431
 20
1126.8639124285228
 11
3358.3105878610431
 21
1116.1465989041108
  0
LINE
  8
_0-3_âh__âÇ
  6
CONTINUOUS
 62
    7
 10
3358.3105878610431
 20
1116.1465989041108
 11
3338.3118085641681
 21
1121.5052556663168
  0
SOLID
  8
_0-3_âh__âÇ
  6
CONTINUOUS
 62
    8
 10
3338.3118085641681
 20
1121.5052556663168
 11
3358.3105878610431
 21
1126.8639124285228
 12
3358.3105878610431
 22
1116.1465989041108
 13
3358.3105878610431
 23
1116.1465989041108
  0
LINE
  8
_0-3_âh__âÇ
  6
CONTINUOUS
 62
    7
 10
3638.3130292672586
 20
1126.8639124285228
 11
3658.3118085641336
 21
1121.5052556663168
  0
LINE
  8
_0-3_âh__âÇ
  6
CONTINUOUS
 62
    7
 10
3658.3118085641336
 20
1121.5052556663168
 11
3638.3130292672586
 21
1116.1465989041108
  0
LINE
  8
_0-3_âh__âÇ
  6
CONTINUOUS
 62
    7
 10
3638.3130292672586
 20
1116.1465989041108
 11
3638.3130292672586
 21
1126.8639124285228
  0
SOLID
  8
_0-3_âh__âÇ
  6
CONTINUOUS
 62
    8
 10
3658.3118085641336
 20
1121.5052556663168
 11
3638.3130292672586
 21
1116.1465989041108
 12
3638.3130292672586
 22
1126.8639124285228
 13
3638.3130292672586
 23
1126.8639124285228
  0
LINE
  8
_0-3_âh__âÇ
  6
CONTINUOUS
 62
    7
 10
3358.3105878610431
 20
1121.5052556663168
 11
3638.3130292672586
 21
1121.5052556663168
  0
TEXT
  8
_0-3_âh__âÇ
 62
    7
 10
3473.3935030264051
 20
1129.1154256871569
 40
27.147352430555571
 41
1.1764705882352964
 50
0
  1
320
  0
TEXT
  8
_0-3_âh__âÇ
 62
    7
 10
2479.1434558775718
 20
1282.6156408025058
 40
24.432617187499979
 41
1.176470588235295
 50
0
  1
ÿAîïâ{âbâNâX
  0
LINE
  8
_0-3_âh__âÇ
  6
CONTINUOUS
 62
    7
 10
2460.2140438781876
 20
1274.8319493962561
 11
2460.2140438781876
 21
1314.8319493962561
  0
LINE
  8
_0-3_âh__âÇ
  6
CONTINUOUS
 62
    7
 10
2460.2140438781876
 20
1314.8319493962561
 11
2670.5384009651916
 21
1314.8319493962561
  0
LINE
  8
_0-3_âh__âÇ
  6
CONTINUOUS
 62
    7
 10
2670.5384009651916
 20
1274.8319493962561
 11
2460.2140438781876
 21
1274.8319493962561
  0
LINE
  8
_0-3_âh__âÇ
  6
CONTINUOUS
 62
    7
 10
2670.5384009651916
 20
1314.8319493962561
 11
2670.5384009651916
 21
1274.8319493962561
  0
LINE
  8
_0-3_âh__âÇ
  6
CONTINUOUS
 62
    7
 10
3326.1948004777005
 20
1357.9758391516534
 11
2670.5384009651916
 21
1296.1423951532868
  0
TEXT
  8
_0-3_âh__âÇ
 62
    7
 10
2826.9896469108944
 20
1130.0080539375933
 40
24.432617187500014
 41
1.1764705882352939
 50
0
  1
ÄUî§âJâoü[
  0
LINE
  8
_0-3_âh__âÇ
  6
DASHED1
 62
    7
 10
3310.0236422933062
 20
2356.3637326877288
 11
3082.7369477036386
 21
2264.8992124490342
  0
LINE
  8
_0-3_âh__âÇ
  6
DASHED1
 62
    7
 10
3213.4005501746701
 20
1940.2039395415909
 11
3440.6872447643591
 21
2031.668459780293
  0
LINE
  8
_0-3_âh__âÇ
  6
DASHED1
 62
    7
 10
3344.0641438003058
 20
1615.5086678730963
 11
3571.3508454724119
 21
1706.9731705121942
  0
LINE
  8
_0-3_âh__âÇ
  6
DASHED1
 62
    7
 10
3378.31180856424
 20
1430.1137453436706
 11
3378.31180856424
 21
1380.1137453436706
  0
LINE
  8
_0-3_âh__âÇ
  6
DASHED1
 62
    7
 10
3378.31180856424
 20
1430.1137453436706
 11
3618.31180856424
 21
1430.1137453436706
  0
LINE
  8
_0-3_âh__âÇ
  6
DASHED1
 62
    7
 10
3618.31180856424
 20
1430.1137453436706
 11
3618.31180856424
 21
1380.1137453436706
  0
LINE
  8
_f-f_
  6
CONTINUOUS
 62
    7
 10
3064.142973436441
 20
693.48227063335912
 11
3064.1429733246309
 21
515.6602441017742
  0
CIRCLE
  8
_0-3_âh__âÇ
  6
CONTINUOUS
 62
    7
 10
2399.8483494848965
 20
515.66024402471896
 40
4
  0
LINE
  8
_0-3_âh__âÇ
  6
CONTINUOUS
 62
    7
 10
4061.6429733246309
 20
262.49238574050395
 11
2311.6429733246309
 21
262.49238574050395
  0
LINE
  8
_0-3_âh__âÇ
  6
CONTINUOUS
 62
    7
 10
2311.6429733246309
 20
262.49238574050395
 11
2311.6429733246309
 21
1000.4923857405039
  0
LINE
  8
_0-3_âh__âÇ
  6
CONTINUOUS
 62
    7
 10
2311.6429733246309
 20
1000.4923857405039
 11
4061.6429733246309
 21
1000.4923857405039
  0
LINE
  8
_0-3_âh__âÇ
  6
CONTINUOUS
 62
    7
 10
4061.6429733246309
 20
1000.4923857405039
 11
4061.6429733246309
 21
262.49238574050395
  0
LINE
  8
_f-f_
  6
CONTINUOUS
 62
    7
 10
3597.6429733246241
 20
515.66024409980332
 11
3850.6429733246246
 21
515.66024409980332
  0
LINE
  8
_0-3_âh__âÇ
  6
CONTINUOUS
 62
    7
 10
3524.8802116676898
 20
515.74045902853595
 11
3463.1958762571967
 21
515.74045902853595
  0
TEXT
  8
_0-3_âh__âÇ
 62
    7
 10
3052.4604183732349
 20
276.38246645757818
 40
27.147352430555571
 41
1.1764705882352939
 50
0
  1
èpôxéPéTüïé╠ÅÛìç
  0
LINE
  8
_0-3_âh__âÇ
  6
CONTINUOUS
 62
    7
 10
3186.6429733246309
 20
374.22908801280425
 11
3186.6429733246309
 21
339.65493256126678
  0
LINE
  8
_0-3_âh__âÇ
  6
CONTINUOUS
 62
    7
 10
3161.6429733246309
 20
374.22908801280425
 11
3161.6429733246309
 21
339.65493256126678
  0
CIRCLE
  8
_0-3_âh__âÇ
  6
CONTINUOUS
 62
    7
 10
3186.6429733246309
 20
339.8349325612665
 40
4
  0
CIRCLE
  8
_0-3_âh__âÇ
  6
CONTINUOUS
 62
    7
 10
3161.6429733246309
 20
339.8349325612665
 40
4
  0
LINE
  8
_f-f_
  6
CONTINUOUS
 62
    7
 10
3055.1429733246314
 20
403.66024409980309
 11
3318.1429733246314
 21
403.66024409980309
  0
LINE
  8
_f-f_
  6
CONTINUOUS
 62
    7
 10
3029.1429733246309
 20
394.66024409980321
 11
3030.1429733246314
 21
394.66024409980321
  0
LINE
  8
_f-f_
  6
CONTINUOUS
 62
    7
 10
3032.1429733246309
 20
387.66024409980321
 11
3032.1429733246309
 21
386.66024409980309
  0
LINE
  8
_f-f_
  6
CONTINUOUS
 62
    7
 10
3030.1429733246314
 20
388.66024409980326
 11
3030.1429733246314
 21
394.66024409980321
  0
ARC
  8
_f-f_
  6
CONTINUOUS
 62
    7
 10
3031.1429733246314
 20
388.66024409980326
 40
1
 50
180
 51
270
  0
ARC
  8
_f-f_
  6
CONTINUOUS
 62
    7
 10
3031.1429733246314
 20
388.66024409980326
 40
2
 50
180
 51
270
  0
LINE
  8
_f-f_
  6
CONTINUOUS
 62
    7
 10
3029.1429733246309
 20
388.66024409980326
 11
3029.1429733246309
 21
394.66024409980321
  0
LINE
  8
_f-f_
  6
CONTINUOUS
 62
    7
 10
3060.1429733246314
 20
515.66024409980332
 11
3056.1429733246314
 21
403.66024409980309
  0
LINE
  8
_f-f_
  6
CONTINUOUS
 62
    7
 10
3060.1429733246314
 20
515.66024409980332
 11
3313.1429733246314
 21
515.66024409980332
  0
LINE
  8
_f-f_
  6
CONTINUOUS
 62
    7
 10
3056.1429733246314
 20
403.66024409980309
 11
3056.1429733246314
 21
386.66024409980309
  0
LINE
  8
_f-f_
  6
CONTINUOUS
 62
    7
 10
3031.1429733246314
 20
386.66024409980309
 11
3056.1429733246314
 21
386.66024409980309
  0
LINE
  8
_f-f_
  6
CONTINUOUS
 62
    7
 10
3055.1429733246314
 20
403.66024409980309
 11
3055.1429733246314
 21
387.66024409980321
  0
LINE
  8
_f-f_
  6
CONTINUOUS
 62
    7
 10
3031.1429733246314
 20
387.66024409980321
 11
3055.1429733246314
 21
387.66024409980321
  0
LINE
  8
_f-f_
  6
CONTINUOUS
 62
    7
 10
3317.1429733246309
 20
386.66024409980309
 11
3056.1429733246314
 21
386.66024409980309
  0
LINE
  8
_f-f_
  6
CONTINUOUS
 62
    7
 10
3309.1429733246559
 20
515.66024409980412
 11
3064.1429733246559
 21
515.6602440998023
  0
LINE
  8
_f-f_
  6
CONTINUOUS
 62
    7
 10
3064.1429733246559
 20
518.66024409980332
 11
3066.6429733246309
 21
518.66024409980332
  0
LINE
  8
_f-f_
  6
CONTINUOUS
 62
    7
 10
3043.2963577386736
 20
771.28289965353292
 11
3064.142973436441
 21
693.48227063335912
  0
LINE
  8
_f-f_
  6
CONTINUOUS
 62
    7
 10
3309.1429733246309
 20
515.6602440227482
 11
3064.1429733246309
 21
515.66024417685844
  0
LINE
  8
_f-f_
  6
CONTINUOUS
 62
    7
 10
3307.7993978559293
 20
728.97978621893094
 11
3063.2579316537208
 21
696.7852915362721
  0
LINE
  8
_f-f_
  6
CONTINUOUS
 62
    7
 10
3064.1429734343019
 20
690.08192039048595
 11
3308.6870126827539
 21
722.27675382110942
  0
LINE
  8
_f-f_
  6
CONTINUOUS
 62
    7
 10
3064.1429734364333
 20
693.48227063338015
 11
3309.1429734567773
 21
725.7371324382251
  0
TEXT
  8
_0-3_âh__âÇ
 62
    7
 10
2539.0864504044198
 20
286.02135536893672
 40
27.147352430555713
 41
1.1764705882352875
 50
0
  1
èpôxéOüïé╠ÅÛìç
  0
LINE
  8
_f-f_
  6
CONTINUOUS
 62
    7
 10
2517.6429733246314
 20
403.66024409980309
 11
2780.6429733246314
 21
403.66024409980309
  0
LINE
  8
_f-f_
  6
CONTINUOUS
 62
    7
 10
2491.6429733246314
 20
394.66024409980321
 11
2492.6429733246314
 21
394.66024409980321
  0
LINE
  8
_f-f_
  6
CONTINUOUS
 62
    7
 10
2805.6429733246314
 20
394.66024409980321
 11
2806.6429733246309
 21
394.66024409980321
  0
LINE
  8
_f-f_
  6
CONTINUOUS
 62
    7
 10
2803.6429733246314
 20
387.66024409980321
 11
2803.6429733246314
 21
386.66024409980309
  0
LINE
  8
_f-f_
  6
CONTINUOUS
 62
    7
 10
2494.6429733246314
 20
387.66024409980321
 11
2494.6429733246314
 21
386.66024409980309
  0
LINE
  8
_f-f_
  6
CONTINUOUS
 62
    7
 10
2492.6429733246314
 20
388.66024409980326
 11
2492.6429733246314
 21
394.66024409980321
  0
ARC
  8
_f-f_
  6
CONTINUOUS
 62
    7
 10
2493.6429733246309
 20
388.66024409980326
 40
1
 50
180
 51
270
  0
ARC
  8
_f-f_
  6
CONTINUOUS
 62
    7
 10
2493.6429733246309
 20
388.66024409980326
 40
2
 50
180
 51
270
  0
LINE
  8
_f-f_
  6
CONTINUOUS
 62
    7
 10
2491.6429733246314
 20
388.66024409980326
 11
2491.6429733246314
 21
394.66024409980321
  0
LINE
  8
_f-f_
  6
CONTINUOUS
 62
    7
 10
2805.6429733246314
 20
388.66024409980326
 11
2805.6429733246314
 21
394.66024409980321
  0
ARC
  8
_f-f_
  6
CONTINUOUS
 62
    7
 10
2804.6429733246309
 20
388.66024409980326
 40
1
 50
270
 51
0
  0
ARC
  8
_f-f_
  6
CONTINUOUS
 62
    7
 10
2804.6429733246309
 20
388.66024409980326
 40
2
 50
270
 51
0
  0
LINE
  8
_f-f_
  6
CONTINUOUS
 62
    7
 10
2806.6429733246309
 20
394.66024409980321
 11
2806.6429733246309
 21
388.66024409980326
  0
LINE
  8
_f-f_
  6
CONTINUOUS
 62
    7
 10
2522.6429733246314
 20
515.66024409980332
 11
2518.6429733246309
 21
403.66024409980309
  0
LINE
  8
_f-f_
  6
CONTINUOUS
 62
    7
 10
2522.6429733246314
 20
515.66024409980332
 11
2775.6429733246314
 21
515.66024409980332
  0
LINE
  8
_f-f_
  6
CONTINUOUS
 62
    7
 10
2779.6429733246309
 20
403.66024409980309
 11
2775.6429733246314
 21
515.66024409980332
  0
LINE
  8
_f-f_
  6
CONTINUOUS
 62
    7
 10
2779.6429733246309
 20
403.66024409980309
 11
2779.6429733246309
 21
386.66024409980309
  0
LINE
  8
_f-f_
  6
CONTINUOUS
 62
    7
 10
2779.6429733246309
 20
386.66024409980309
 11
2804.6429733246309
 21
386.66024409980309
  0
LINE
  8
_f-f_
  6
CONTINUOUS
 62
    7
 10
2780.6429733246314
 20
403.66024409980309
 11
2780.6429733246314
 21
387.66024409980321
  0
LINE
  8
_f-f_
  6
CONTINUOUS
 62
    7
 10
2804.6429733246309
 20
387.66024409980321
 11
2780.6429733246314
 21
387.66024409980321
  0
LINE
  8
_f-f_
  6
CONTINUOUS
 62
    7
 10
2518.6429733246314
 20
403.66024409980309
 11
2518.6429733246314
 21
386.66024409980309
  0
LINE
  8
_f-f_
  6
CONTINUOUS
 62
    7
 10
2493.6429733246309
 20
386.66024409980309
 11
2518.6429733246314
 21
386.66024409980309
  0
LINE
  8
_f-f_
  6
CONTINUOUS
 62
    7
 10
2517.6429733246314
 20
403.66024409980309
 11
2517.6429733246314
 21
387.66024409980321
  0
LINE
  8
_f-f_
  6
CONTINUOUS
 62
    7
 10
2493.6429733246309
 20
387.66024409980321
 11
2517.6429733246314
 21
387.66024409980321
  0
LINE
  8
_f-f_
  6
CONTINUOUS
 62
    7
 10
2779.6429733246309
 20
386.66024409980309
 11
2518.6429733246314
 21
386.66024409980309
  0
LINE
  8
_f-f_
  6
CONTINUOUS
 62
    7
 10
2771.6429733246559
 20
515.66024409980412
 11
2526.6429733246559
 21
515.6602440998023
  0
LINE
  8
_f-f_
  6
CONTINUOUS
 62
    7
 10
2526.6429733246559
 20
518.66024409980332
 11
2529.1429733246314
 21
518.66024409980332
  0
LINE
  8
_f-f_
  6
CONTINUOUS
 62
    7
 10
2769.1429733246309
 20
518.66024409980332
 11
2771.6429733246559
 21
518.66024409980332
  0
LINE
  8
_f-f_
  6
CONTINUOUS
 62
    7
 10
2771.6429733246309
 20
515.6602440227482
 11
2526.6429733246309
 21
515.66024417685844
  0
LINE
  8
_0-3_âh__âÇ
  6
CONTINUOUS
 62
    7
 10
2461.3526848953893
 20
515.66024402471896
 11
2399.6683494848962
 21
515.66024402471896
  0
LINE
  8
_f-f_
  6
CONTINUOUS
 62
    7
 10
2526.6429733246309
 20
815.66024402471862
 11
2526.6429733246309
 21
515.66024402471896
  0
LINE
  8
_f-f_
  6
CONTINUOUS
 62
    7
 10
2771.6429733246309
 20
815.66024402471862
 11
2771.6429733246309
 21
515.66024402471896
  0
LINE
  8
_f-f_
  6
CONTINUOUS
 62
    7
 10
2771.6429733246309
 20
515.66024409980332
 11
2526.6429733246309
 21
515.66024409980332
  0
LINE
  8
_f-f_
  6
CONTINUOUS
 62
    7
 10
2526.6429733246309
 20
663.57022962820997
 11
2771.6429733246309
 21
729.24711811877216
  0
LINE
  8
_f-f_
  6
CONTINUOUS
 62
    7
 10
2526.6429733246309
 20
656.56995458095457
 11
2771.7567241819465
 21
722.27733614241913
  0
LINE
  8
_f-f_
  6
CONTINUOUS
 62
    7
 10
2526.6429733246309
 20
660.06024402471871
 11
2771.6429733246309
 21
725.7371325152809
  0
LINE
  8
_0-3_âh__âÇ
  6
CONTINUOUS
 62
    7
 10
2461.3526848953893
 20
815.66024402471896
 11
2399.6683494848962
 21
815.66024402471896
  0
CIRCLE
  8
_0-3_âh__âÇ
  6
CONTINUOUS
 62
    7
 10
2399.8483494848965
 20
815.66024402471896
 40
4
  0
LINE
  8
_0-3_âh__âÇ
  6
CONTINUOUS
 62
    7
 10
2869.8454206990336
 20
394.66024409980321
 11
2780.6429733246314
 21
394.66024409980321
  0
LINE
  8
_0-3_âh__âÇ
  6
CONTINUOUS
 62
    7
 10
2517.6429733246314
 20
394.66024409980321
 11
2428.4405259502219
 21
394.66024409980321
  0
LINE
  8
_f-f_
  6
CONTINUOUS
 62
    7
 10
3592.6429733246241
 20
403.66024409980309
 11
3855.6429733246246
 21
403.66024409980309
  0
LINE
  8
_f-f_
  6
CONTINUOUS
 62
    7
 10
3566.6429733246241
 20
394.66024409980321
 11
3567.6429733246241
 21
394.66024409980321
  0
LINE
  8
_f-f_
  6
CONTINUOUS
 62
    7
 10
3880.6429733246246
 20
394.66024409980321
 11
3881.6429733246241
 21
394.66024409980321
  0
LINE
  8
_f-f_
  6
CONTINUOUS
 62
    7
 10
3878.6429733246246
 20
387.66024409980321
 11
3878.6429733246246
 21
386.66024409980309
  0
LINE
  8
_f-f_
  6
CONTINUOUS
 62
    7
 10
3569.6429733246241
 20
387.66024409980321
 11
3569.6429733246241
 21
386.66024409980309
  0
LINE
  8
_f-f_
  6
CONTINUOUS
 62
    7
 10
3567.6429733246241
 20
388.66024409980326
 11
3567.6429733246241
 21
394.66024409980321
  0
ARC
  8
_f-f_
  6
CONTINUOUS
 62
    7
 10
3568.6429733246246
 20
388.66024409980326
 40
1
 50
180
 51
270
  0
ARC
  8
_f-f_
  6
CONTINUOUS
 62
    7
 10
3568.6429733246246
 20
388.66024409980326
 40
2
 50
180
 51
270
  0
LINE
  8
_f-f_
  6
CONTINUOUS
 62
    7
 10
3566.6429733246241
 20
388.66024409980326
 11
3566.6429733246241
 21
394.66024409980321
  0
LINE
  8
_f-f_
  6
CONTINUOUS
 62
    7
 10
3880.6429733246246
 20
388.66024409980326
 11
3880.6429733246246
 21
394.66024409980321
  0
ARC
  8
_f-f_
  6
CONTINUOUS
 62
    7
 10
3879.6429733246241
 20
388.66024409980326
 40
1
 50
270
 51
0
  0
ARC
  8
_f-f_
  6
CONTINUOUS
 62
    7
 10
3879.6429733246241
 20
388.66024409980326
 40
2
 50
270
 51
0
  0
LINE
  8
_f-f_
  6
CONTINUOUS
 62
    7
 10
3881.6429733246241
 20
394.66024409980321
 11
3881.6429733246241
 21
388.66024409980326
  0
LINE
  8
_f-f_
  6
CONTINUOUS
 62
    7
 10
3597.6429733246241
 20
515.66024409980332
 11
3593.6429733246246
 21
403.66024409980309
  0
LINE
  8
_f-f_
  6
CONTINUOUS
 62
    7
 10
3854.6429733246241
 20
403.66024409980309
 11
3850.6429733246246
 21
515.66024409980332
  0
LINE
  8
_f-f_
  6
CONTINUOUS
 62
    7
 10
3854.6429733246241
 20
403.66024409980309
 11
3854.6429733246241
 21
386.66024409980309
  0
LINE
  8
_f-f_
  6
CONTINUOUS
 62
    7
 10
3854.6429733246241
 20
386.66024409980309
 11
3879.6429733246241
 21
386.66024409980309
  0
LINE
  8
_f-f_
  6
CONTINUOUS
 62
    7
 10
3855.6429733246246
 20
403.66024409980309
 11
3855.6429733246246
 21
387.66024409980321
  0
LINE
  8
_f-f_
  6
CONTINUOUS
 62
    7
 10
3879.6429733246241
 20
387.66024409980321
 11
3855.6429733246246
 21
387.66024409980321
  0
LINE
  8
_f-f_
  6
CONTINUOUS
 62
    7
 10
3593.6429733246246
 20
403.66024409980309
 11
3593.6429733246246
 21
386.66024409980309
  0
LINE
  8
_f-f_
  6
CONTINUOUS
 62
    7
 10
3568.6429733246246
 20
386.66024409980309
 11
3593.6429733246246
 21
386.66024409980309
  0
LINE
  8
_f-f_
  6
CONTINUOUS
 62
    7
 10
3592.6429733246241
 20
403.66024409980309
 11
3592.6429733246241
 21
387.66024409980321
  0
LINE
  8
_f-f_
  6
CONTINUOUS
 62
    7
 10
3568.6429733246246
 20
387.66024409980321
 11
3592.6429733246241
 21
387.66024409980321
  0
LINE
  8
_f-f_
  6
CONTINUOUS
 62
    7
 10
3854.6429733246241
 20
386.66024409980309
 11
3593.6429733246246
 21
386.66024409980309
  0
LINE
  8
_f-f_
  6
CONTINUOUS
 62
    7
 10
3846.6429733246491
 20
515.66024409980412
 11
3601.6429733246491
 21
515.6602440998023
  0
LINE
  8
_f-f_
  6
CONTINUOUS
 62
    7
 10
3601.6429733246491
 20
518.66024409980332
 11
3604.1429733246241
 21
518.66024409980332
  0
LINE
  8
_f-f_
  6
CONTINUOUS
 62
    7
 10
3844.1429733246241
 20
518.66024409980332
 11
3846.6429733246491
 21
518.66024409980332
  0
TEXT
  8
_0-3_âh__âÇ
 62
    7
 10
3617.3808297936203
 20
276.38246648004809
 40
27.147352430555571
 41
1.1764705882352933
 50
0
  1
èpôxéRéOüïé╠ÅÛìç
  0
LINE
  8
_f-f_
  6
CONTINUOUS
 62
    7
 10
3773.8148019227606
 20
851.81416234330857
 11
3846.6429733246491
 21
725.7371325152809
  0
LINE
  8
_f-f_
  6
CONTINUOUS
 62
    7
 10
3601.6429733246491
 20
660.0602440247178
 11
3601.6429733246491
 21
515.66024402471726
  0
LINE
  8
_f-f_
  6
CONTINUOUS
 62
    7
 10
3561.6659536544475
 20
729.26675854205223
 11
3601.6429733246491
 21
660.06024402471667
  0
LINE
  8
_f-f_
  6
CONTINUOUS
 62
    7
 10
3846.6429733246491
 20
725.7371325152809
 11
3846.6429733246491
 21
515.66024402471976
  0
LINE
  8
_f-f_
  6
CONTINUOUS
 62
    7
 10
3844.8873013936764
 20
728.7764770182157
 11
3599.8873013936764
 21
663.0995885276518
  0
LINE
  8
_f-f_
  6
CONTINUOUS
 62
    7
 10
3601.6429733246491
 20
656.5699545809523
 11
3846.6429733246491
 21
722.24684307151904
  0
LINE
  8
_f-f_
  6
CONTINUOUS
 62
    7
 10
3601.6429733246491
 20
660.0602440247178
 11
3846.6429733246491
 21
725.7371325152809
  0
LINE
  8
_f-f_
  6
CONTINUOUS
 62
    7
 10
3343.1429733246314
 20
394.66024409980321
 11
3344.1429733246309
 21
394.66024409980321
  0
LINE
  8
_f-f_
  6
CONTINUOUS
 62
    7
 10
3341.1429733246314
 20
387.66024409980321
 11
3341.1429733246314
 21
386.66024409980309
  0
LINE
  8
_f-f_
  6
CONTINUOUS
 62
    7
 10
3343.1429733246314
 20
388.66024409980326
 11
3343.1429733246314
 21
394.66024409980321
  0
ARC
  8
_f-f_
  6
CONTINUOUS
 62
    7
 10
3342.1429733246309
 20
388.66024409980326
 40
1
 50
270
 51
0
  0
ARC
  8
_f-f_
  6
CONTINUOUS
 62
    7
 10
3342.1429733246309
 20
388.66024409980326
 40
2
 50
270
 51
0
  0
LINE
  8
_f-f_
  6
CONTINUOUS
 62
    7
 10
3344.1429733246309
 20
394.66024409980321
 11
3344.1429733246309
 21
388.66024409980326
  0
LINE
  8
_f-f_
  6
CONTINUOUS
 62
    7
 10
3317.1429733246309
 20
403.66024409980309
 11
3313.1429733246314
 21
515.66024409980332
  0
LINE
  8
_f-f_
  6
CONTINUOUS
 62
    7
 10
3317.1429733246309
 20
403.66024409980309
 11
3317.1429733246309
 21
386.66024409980309
  0
LINE
  8
_f-f_
  6
CONTINUOUS
 62
    7
 10
3317.1429733246309
 20
386.66024409980309
 11
3342.1429733246309
 21
386.66024409980309
  0
LINE
  8
_f-f_
  6
CONTINUOUS
 62
    7
 10
3318.1429733246314
 20
403.66024409980309
 11
3318.1429733246314
 21
387.66024409980321
  0
LINE
  8
_f-f_
  6
CONTINUOUS
 62
    7
 10
3342.1429733246309
 20
387.66024409980321
 11
3318.1429733246314
 21
387.66024409980321
  0
LINE
  8
_f-f_
  6
CONTINUOUS
 62
    7
 10
3306.6429733246309
 20
518.66024409980332
 11
3309.1429733246559
 21
518.66024409980332
  0
LINE
  8
_f-f_
  6
CONTINUOUS
 62
    7
 10
3279.9481851938081
 20
834.69356565022395
 11
3309.1429734567773
 21
725.7371324382251
  0
LINE
  8
_f-f_
  6
CONTINUOUS
 62
    7
 10
3309.1429734567773
 20
725.7371324382251
 11
3309.1429733246309
 21
515.66024394766396
  0
LINE
  8
_0-3_âh__âÇ
  6
CONTINUOUS
 62
    7
 10
3724.1429733246268
 20
374.22908801280386
 11
3724.1429733246268
 21
339.7449325612655
  0
LINE
  8
_0-3_âh__âÇ
  6
CONTINUOUS
 62
    7
 10
3667.7429733246258
 20
374.22908801280425
 11
3667.7429733246258
 21
339.7449325612655
  0
CIRCLE
  8
_0-3_âh__âÇ
  6
CONTINUOUS
 62
    7
 10
3724.1429733246268
 20
339.92493256126551
 40
4
  0
CIRCLE
  8
_0-3_âh__âÇ
  6
CONTINUOUS
 62
    7
 10
3667.7429733246258
 20
339.92493256126551
 40
4
  0
LINE
  8
_0-3_âh__âÇ
  6
CONTINUOUS
 62
    7
 10
3724.1429733246268
 20
339.92493256126551
 11
3667.7429733246258
 21
339.92493256126551
  0
TEXT
  8
_0-3_âh__âÇ
 62
    7
 10
3660.648855677568
 20
339.92493256126551
 40
30
 41
1.1764705882352928
 50
0
  1
56.4
  0
LINE
  8
_0-3_âh__âÇ
  6
CONTINUOUS
 62
    7
 10
3186.6429733246309
 20
339.8349325612665
 11
3161.6429733246309
 21
339.8349325612665
  0
TEXT
  8
_0-3_âh__âÇ
 62
    7
 10
3156.4959145011017
 20
339.83493256126667
 40
30
 41
1.1764705882352928
 50
0
  1
25
  0
TEXT
  8
_0-3_âh__âÇ
 62
    7
 10
2399.7583494849
 20
639.18965578942493
 40
29.999999999999964
 41
1.1764705882352964
 50
90
  1
300
  0
LINE
  8
_0-3_âh__âÇ
  6
CONTINUOUS
 62
    7
 10
3524.8177116676829
 20
692.94046044267918
 11
3463.1958762571967
 21
692.94046044267918
  0
CIRCLE
  8
_0-3_âh__âÇ
  6
CONTINUOUS
 62
    7
 10
3463.375876257197
 20
692.94046044267918
 40
4
  0
CIRCLE
  8
_0-3_âh__âÇ
  6
CONTINUOUS
 62
    7
 10
3463.375876257197
 20
515.74045902853595
 40
4
  0
LINE
  8
_0-3_âh__âÇ
  6
CONTINUOUS
 62
    7
 10
3524.8177116676829
 20
692.94046044267918
 11
3463.1958762571967
 21
692.94046044267918
  0
CIRCLE
  8
_0-3_âh__âÇ
  6
CONTINUOUS
 62
    7
 10
3463.375876257197
 20
692.94046044267918
 40
4
  0
CIRCLE
  8
_0-3_âh__âÇ
  6
CONTINUOUS
 62
    7
 10
3463.375876257197
 20
790.54046044267852
 40
4
  0
TEXT
  8
_0-3_âh__âÇ
 62
    7
 10
3463.2858762572009
 20
560.22281267678409
 40
30.000000000000284
 41
1.1764705882352831
 50
90
  1
177.2
  0
LINE
  8
_0-3_âh__âÇ
  6
CONTINUOUS
 62
    7
 10
3463.375876257197
 20
692.94046044267918
 11
3463.375876257197
 21
790.54046044267852
  0
TEXT
  8
_0-3_âh__âÇ
 62
    7
 10
3463.2858762572009
 20
706.44634279562013
 40
30.000000000000284
 41
1.1764705882352811
 50
90
  1
97.6
  0
LINE
  8
_0-3_âh__âÇ
  6
CONTINUOUS
 62
    7
 10
3574.3910459419867
 20
790.54046044267852
 11
3463.1958762571967
 21
790.54046044267852
  0
LINE
  8
_0-3_âh__âÇ
  6
CONTINUOUS
 62
    7
 10
2987.3802116676725
 20
515.68823123774087
 11
2925.6958762571785
 21
515.68823123774087
  0
LINE
  8
_0-3_âh__âÇ
  6
CONTINUOUS
 62
    7
 10
2987.317711667672
 20
709.58823265188369
 11
2925.6958762571785
 21
709.58823265188369
  0
CIRCLE
  8
_0-3_âh__âÇ
  6
CONTINUOUS
 62
    7
 10
2925.8758762571788
 20
709.58823265188369
 40
4
  0
CIRCLE
  8
_0-3_âh__âÇ
  6
CONTINUOUS
 62
    7
 10
2925.8758762571788
 20
515.68823123774087
 40
4
  0
LINE
  8
_0-3_âh__âÇ
  6
CONTINUOUS
 62
    7
 10
2987.317711667672
 20
709.58823265188369
 11
2925.6958762571785
 21
709.58823265188369
  0
CIRCLE
  8
_0-3_âh__âÇ
  6
CONTINUOUS
 62
    7
 10
2925.8758762571788
 20
709.58823265188369
 40
4
  0
CIRCLE
  8
_0-3_âh__âÇ
  6
CONTINUOUS
 62
    7
 10
2925.8758762571788
 20
802.98823265188412
 40
4
  0
TEXT
  8
_0-3_âh__âÇ
 62
    7
 10
2925.7858762571827
 20
568.52058488598868
 40
30
 41
1.1764705882352942
 50
90
  1
193.9
  0
LINE
  8
_0-3_âh__âÇ
  6
CONTINUOUS
 62
    7
 10
2925.8758762571788
 20
709.58823265188369
 11
2925.8758762571788
 21
802.98823265188412
  0
TEXT
  8
_0-3_âh__âÇ
 62
    7
 10
2925.7858762571827
 20
720.99411500482506
 40
30
 41
1.1764705882352937
 50
90
  1
93.4
  0
LINE
  8
_0-3_âh__âÇ
  6
CONTINUOUS
 62
    7
 10
3038.521667933242
 20
802.98823265188412
 11
2925.6958762571785
 21
802.98823265188412
  0
CIRCLE
  8
_0-3_âh__âÇ
  6
CONTINUOUS
 62
    7
 10
2526.6429733246309
 20
868.58842916061599
 40
4
  0
CIRCLE
  8
_0-3_âh__âÇ
  6
CONTINUOUS
 62
    7
 10
2771.6429733246309
 20
868.58842916061599
 40
4
  0
LINE
  8
_0-3_âh__âÇ
  6
CONTINUOUS
 62
    7
 10
2526.6429733246309
 20
868.58842916061599
 11
2771.6429733246309
 21
868.58842916061599
  0
LINE
  8
_0-3_âh__âÇ
  6
CONTINUOUS
 62
    7
 10
2771.6429733246309
 20
833.69783133726173
 11
2771.6429733246309
 21
868.76842916061594
  0
LINE
  8
_0-3_âh__âÇ
  6
CONTINUOUS
 62
    7
 10
2526.6429733246309
 20
833.69783133726173
 11
2526.6429733246309
 21
868.76842916061594
  0
CIRCLE
  8
_0-3_âh__âÇ
  6
CONTINUOUS
 62
    7
 10
2491.6429733246309
 20
438.68749844061608
 40
4
  0
LINE
  8
_0-3_âh__âÇ
  6
CONTINUOUS
 62
    7
 10
2491.6429733246309
 20
404.66024409980321
 11
2491.6429733246309
 21
438.68749844061608
  0
LINE
  8
_0-3_âh__âÇ
  6
CONTINUOUS
 62
    7
 10
2491.6429733246309
 20
438.68749844061608
 11
2806.6429733246309
 21
438.68749844061608
  0
CIRCLE
  8
_0-3_âh__âÇ
  6
CONTINUOUS
 62
    7
 10
2806.6429733246309
 20
438.50749844061636
 40
4
  0
LINE
  8
_0-3_âh__âÇ
  6
CONTINUOUS
 62
    7
 10
2806.6429733246309
 20
404.66024409980321
 11
2806.6429733246309
 21
438.68749844061608
  0
TEXT
  8
_0-3_âh__âÇ
 62
    7
 10
2622.6723850893368
 20
438.77749844061611
 40
30.000000000000142
 41
1.1764705882352895
 50
0
  1
315
  0
LINE
  8
_0-3_âh__âÇ
  6
CONTINUOUS
 62
    7
 10
2829.6172324197119
 20
381.90922510444238
 11
2844.6283394186407
 21
355.90922510444244
  0
LINE
  8
_0-3_âh__âÇ
  6
CONTINUOUS
 62
    7
 10
2844.6283394186407
 20
355.90922510444244
 11
2911.610050968332
 21
355.90922510444244
  0
TEXT
  8
_0-3_âh__âÇ
 62
    7
 10
2914.610050968332
 20
345.13486328318862
 40
16.288411458333343
 41
1.1764705882352935
 50
0
  1
ôVêõìÌ
  0
LINE
  8
_0-3_âh__âÇ
  6
CONTINUOUS
 62
    7
 10
2399.8483494848965
 20
815.66024402471896
 11
2399.8483494848965
 21
386.66024412471899
  0
LINE
  8
_0-3_âh__âÇ
  6
CONTINUOUS
 62
    7
 10
2461.3526848953893
 20
386.66024412471899
 11
2399.8483494848965
 21
386.66024412471899
  0
CIRCLE
  8
_0-3_âh__âÇ
  6
CONTINUOUS
 62
    7
 10
2400.0283494848968
 20
386.66024412471899
 40
4
  0
TEXT
  8
_0-3_âh__âÇ
 62
    7
 10
2399.8483494848965
 20
424.68965583942474
 40
29.999999999999964
 41
1.1764705882352964
 50
90
  1
129
  0
CIRCLE
  8
_0-3_âh__âÇ
  6
CONTINUOUS
 62
    7
 10
2926.0558762571791
 20
386.66024412471899
 40
4
  0
TEXT
  8
_0-3_âh__âÇ
 62
    7
 10
2925.8758762571797
 20
424.68965583942474
 40
30.000000000000142
 41
1.1764705882352895
 50
90
  1
129
  0
CIRCLE
  8
_0-3_âh__âÇ
  6
CONTINUOUS
 62
    7
 10
3463.5558762571973
 20
386.66024412471899
 40
4
  0
TEXT
  8
_0-3_âh__âÇ
 62
    7
 10
3463.375876257197
 20
424.68965583942474
 40
30.000000000000284
 41
1.1764705882352837
 50
90
  1
129
  0
LINE
  8
_0-3_âh__âÇ
  6
CONTINUOUS
 62
    7
 10
2925.8758762571788
 20
709.58823265188369
 11
2925.8758762571788
 21
386.66024412471899
  0
LINE
  8
_0-3_âh__âÇ
  6
CONTINUOUS
 62
    7
 10
2987.3802116676725
 20
386.66024412471899
 11
2925.8758762571788
 21
386.66024412471899
  0
LINE
  8
_0-3_âh__âÇ
  6
CONTINUOUS
 62
    7
 10
3463.375876257197
 20
692.94046044267918
 11
3463.375876257197
 21
386.66024412471899
  0
LINE
  8
_0-3_âh__âÇ
  6
CONTINUOUS
 62
    7
 10
3524.8802116676898
 20
386.66024412471899
 11
3463.375876257197
 21
386.66024412471899
  0
POINT
  8
_0-3_âh__âÇ
 62
    7
 10
2491.6429733246314
 20
394.66024409980321
  0
LINE
  8
_0-3_âh__âÇ
  6
CONTINUOUS
 62
    7
 10
2496.1124184089472
 20
389.55584239483812
 11
2514.0102767538242
 21
358.55584239483818
  0
LINE
  8
_0-3_âh__âÇ
  6
CONTINUOUS
 62
    7
 10
2514.0102767538242
 20
358.55584239483818
 11
2568.148974477821
 21
358.55584239483818
  0
TEXT
  8
_0-3_âh__âÇ
 62
    7
 10
2572.9919883035159
 20
347.78148057358453
 40
16.288411458333201
 41
1.1764705882353041
 50
0
  1
è¯ô_çD
  0
POINT
  8
_0-3_âh__âÇ
 62
    7
 10
3029.1429733246309
 20
394.66024409980321
  0
POINT
  8
_0-3_âh__âÇ
 62
    7
 10
3566.6429733246241
 20
394.66024409980321
  0
POINT
  8
_0-3_âh__âÇ
 62
    7
 10
2526.6429733246309
 20
815.66024402471862
  0
LINE
  8
_0-3_âh__âÇ
  6
CONTINUOUS
 62
    7
 10
2529.2078174586404
 20
803.66024409980287
 11
2541.1106685264435
 21
783.04390129543822
  0
LINE
  8
_0-3_âh__âÇ
  6
CONTINUOUS
 62
    7
 10
2541.1106685264435
 20
783.04390129543822
 11
2608.0923800761429
 21
783.04390129543822
  0
TEXT
  8
_0-3_âh__âÇ
 62
    7
 10
2611.0923800761429
 20
772.26953947418428
 40
16.288411458333343
 41
1.176470588235293
 50
0
  1
è¯ô_çCüf
  0
POINT
  8
_0-3_âh__âÇ
 62
    7
 10
3043.2963577386736
 20
771.28289965353292
  0
POINT
  8
_0-3_âh__âÇ
 62
    7
 10
3561.6659536544475
 20
729.26675854205223
  0
TEXT
  8
_0-3_âh__âÇ
 62
    7
 10
2319.9643809638515
 20
929.05567160902831
 40
33.954861111111043
 41
1.1764705882352968
 50
0
  1
üméTünâ{âgâÇâAâôâOâïâ`âàü[âu + ÿAîïâ{âbâNâX
  0
LINE
  8
_0-3_âh__âÇ
  6
CONTINUOUS
 62
    7
 10
3218.0236570427396
 20
912.49238574050401
 11
2311.6429733246309
 21
912.49238574050401
  0
LINE
  8
_0-3_âh__âÇ
  6
CONTINUOUS
 62
    7
 10
3218.0236570427396
 20
1000.4923857405039
 11
3218.0236570427396
 21
912.49238574050401
  0
LINE
  8
_0-3_âh__âÇ
  6
DASHED1
 62
    7
 10
2771.6429733246309
 20
815.66024402471862
 11
2526.6429733246309
 21
815.66024402471862
  0
LINE
  8
_0-3_âh__âÇ
  6
DASHED1
 62
    7
 10
3043.2963577386736
 20
771.28289965353292
 11
3279.9481851938081
 21
834.69356565022395
  0
LINE
  8
_0-3_âh__âÇ
  6
DASHED1
 62
    7
 10
3561.6659536544475
 20
729.26675854205223
 11
3773.8148019227606
 21
851.81416234330857
  0
LINE
  8
_0-3_âh__âÇ
  6
DASHED1
 62
    7
 10
2529.1429733246314
 20
565.66024409980332
 11
2529.1429733246314
 21
515.66024409980332
  0
LINE
  8
_0-3_âh__âÇ
  6
DASHED1
 62
    7
 10
2529.1429733246314
 20
565.66024409980332
 11
2769.1429733246309
 21
565.66024409980332
  0
LINE
  8
_0-3_âh__âÇ
  6
DASHED1
 62
    7
 10
2769.1429733246309
 20
565.66024409980332
 11
2769.1429733246309
 21
515.66024409980332
  0
LINE
  8
_0-3_âh__âÇ
  6
DASHED1
 62
    7
 10
3066.6429733246309
 20
565.66024409980332
 11
3066.6429733246309
 21
515.66024409980332
  0
LINE
  8
_0-3_âh__âÇ
  6
DASHED1
 62
    7
 10
3066.6429733246309
 20
565.66024409980332
 11
3306.6429733246309
 21
565.66024409980332
  0
LINE
  8
_0-3_âh__âÇ
  6
DASHED1
 62
    7
 10
3306.6429733246309
 20
565.66024409980332
 11
3306.6429733246309
 21
515.66024409980332
  0
LINE
  8
_0-3_âh__âÇ
  6
DASHED1
 62
    7
 10
3604.1429733246241
 20
565.66024409980332
 11
3604.1429733246241
 21
515.66024409980332
  0
LINE
  8
_0-3_âh__âÇ
  6
DASHED1
 62
    7
 10
3604.1429733246241
 20
565.66024409980332
 11
3844.1429733246241
 21
565.66024409980332
  0
LINE
  8
_0-3_âh__âÇ
  6
DASHED1
 62
    7
 10
3844.1429733246241
 20
565.66024409980332
 11
3844.1429733246241
 21
515.66024409980332
  0
LINE
  8
_0-3_âh__âÇ
  6
CENTER2
 62
    7
 10
2649.1429733246309
 20
356.66024425782609
 11
2649.1429733246309
 21
851.12451974752503
  0
LINE
  8
_0-3_âh__âÇ
  6
CENTER2
 62
    7
 10
3186.6429733246309
 20
709.60970199101598
 11
3153.671679931851
 21
832.66024423535623
  0
LINE
  8
_0-3_âh__âÇ
  6
CENTER2
 62
    7
 10
3186.6429733246309
 20
374.22908801280425
 11
3186.6429733246309
 21
709.60970199101598
  0
LINE
  8
_0-3_âh__âÇ
  6
CENTER2
 62
    7
 10
3648.132793180398
 20
824.48427616561025
 11
3724.1429733246487
 21
692.89868826999941
  0
LINE
  8
_0-3_âh__âÇ
  6
CENTER2
 62
    7
 10
3724.1429733246487
 20
692.89868826999941
 11
3724.1429733245996
 21
339.6549325611777
  0
TEXT
  8
_0-3_âh__âÇ
 62
    7
 10
2605.025326265808
 20
868.67842916061636
 40
29.999999999999929
 41
1.1764705882352977
 50
0
  1
â│245
  0
LINE
  8
_0-3_âh__âÇ
  6
CONTINUOUS
 62
    7
 10
867.36320307792653
 20
1021.4700208998124
 11
1112.3632030779265
 21
1021.4699941982593
  0
LINE
  8
_0-3_âh__âÇ
  6
CONTINUOUS
 62
    7
 10
867.36320307792653
 20
1021.4700208998124
 11
867.36320307792653
 21
1421.470020899812
  0
LINE
  8
_0-3_âh__âÇ
  6
CONTINUOUS
 62
    7
 10
1112.3632030779265
 20
1021.4700208998124
 11
1112.3632030779265
 21
1421.470020899812
  0
POINT
  8
_0-3_âh__âÇ
 62
    7
 10
867.36320307792653
 20
1421.470020899812
  0
POINT
  8
_0-3_âh__âÇ
 62
    7
 10
867.36320307792653
 20
1071.470020899812
  0
POINT
  8
_0-3_âh__âÇ
 62
    7
 10
867.36320307792653
 20
1421.470020899812
  0
LINE
  8
_0-3_âh__âÇ
  6
CONTINUOUS
 62
    7
 10
1255.5866960066271
 20
1009.4700000000016
 11
1255.5866960066271
 21
1609.4700000000016
  0
LINE
  8
_0-3_âh__âÇ
  6
CONTINUOUS
 62
    7
 10
1500.5866960066271
 20
1009.4700000000016
 11
1500.5866960066271
 21
1609.4700000000016
  0
LINE
  8
_0-3_âh__âÇ
  6
CONTINUOUS
 62
    7
 10
1255.5866960066271
 20
1009.4700000000016
 11
1500.5866960066271
 21
1009.4700000000016
  0
LINE
  8
_0-3_âh__âÇ
  6
CONTINUOUS
 62
    7
 10
142.53280487554036
 20
1709.4700000000016
 11
1615.5866960066271
 21
1709.4700000000016
  0
LINE
  8
_0-3_âh__âÇ
  6
CONTINUOUS
 62
    7
 10
1615.5866960066271
 20
1709.4700000000016
 11
1615.5866960066271
 21
949.47000000000162
  0
LINE
  8
_0-3_âh__âÇ
  6
CONTINUOUS
 62
    7
 10
1615.5866960066271
 20
949.47000000000162
 11
142.53280487554036
 21
949.47000000000162
  0
LINE
  8
_0-3_âh__âÇ
  6
CONTINUOUS
 62
    7
 10
142.53280487554036
 20
949.47000000000162
 11
142.53280487554036
 21
1709.4700000000016
  0
TEXT
  8
_0-3_âh__âÇ
 62
    7
 10
171.53280487553303
 20
1641.0811111111129
 40
33.954861111111079
 41
1.176470588235295
 50
0
  1
üméSünëäÆÀâ`âàü[âu
  0
LINE
  8
_0-3_âh__âÇ
  6
CONTINUOUS
 62
    7
 10
142.53280487554036
 20
1709.4700000000016
 11
653.53280487554025
 21
1709.4700000000016
  0
LINE
  8
_0-3_âh__âÇ
  6
CONTINUOUS
 62
    7
 10
653.53280487554025
 20
1709.4700000000016
 11
653.53280487554025
 21
1625.4700000000016
  0
LINE
  8
_0-3_âh__âÇ
  6
CONTINUOUS
 62
    7
 10
653.53280487554025
 20
1625.4700000000016
 11
142.53280487554036
 21
1625.4700000000016
  0
LINE
  8
_0-3_âh__âÇ
  6
CONTINUOUS
 62
    7
 10
142.53280487554036
 20
1625.4700000000016
 11
142.53280487554036
 21
1709.4700000000016
  0
LINE
  8
_0-3_âh__âÇ
  6
CONTINUOUS
 62
    7
 10
2267.5328048755405
 20
2309.4700000000016
 11
1617.5328048755405
 21
2309.4700000000016
  0
LINE
  8
_0-3_âh__âÇ
  6
CONTINUOUS
 62
    7
 10
1475.5328048755403
 20
2309.4700000000016
 11
864.53280487554025
 21
2309.4700000000016
  0
LINE
  8
_0-3_âh__âÇ
  6
CONTINUOUS
 62
    7
 10
2267.5328048755405
 20
2267.4700000000016
 11
2267.5328048755405
 21
1757.4700000000016
  0
TEXT
  8
_0-3_âh__âÇ
 62
    7
 10
1584.5328048755403
 20
2122.7200000000016
 40
24.432617187500085
 41
1.1764705882352908
 50
0
  1
üªùñë«ì¬ùp
  0
TEXT
  8
_0-3_âh__âÇ
 62
    7
 10
138.53280487554031
 20
2645.596493195927
 40
21.828125000000114
 41
1.1764705882352879
 50
0
  1
ëEÉ}é╠üuö[é▄éÞÄûùßüvé­ÄQìlé╔éÁé─üméPünü`üméUüné╠
  0
TEXT
  8
_0-3_âh__âÇ
 62
    7
 10
138.53280487554031
 20
2599.5964931959279
 40
21.828124999999972
 41
1.1764705882352957
 50
0
  1
òöòié­é┬é╚é¼ìçéÝé╣é─é▓Ägùpé¡é¥é│éóüB
  0
TEXT
  8
_0-3_âh__âÇ
 62
    7
 10
138.53280487554031
 20
2519.5964931959275
 40
21.828125000000114
 41
1.1764705882352882
 50
0
  1
òöòiûêé╔üuè¯ô_üvé¬É¦ÆÞé│éÛé─éóé▄éÀüB
  0
TEXT
  8
_0-3_âh__âÇ
 62
    7
 10
138.53280487554031
 20
2477.5964931959279
 40
21.828124999999972
 41
1.1764705882352959
 50
0
  1
òöòié­ÿAîïéÀéÚì█é╔é═ç@éãç@üfüAçAéãçAüf
  0
TEXT
  8
_0-3_âh__âÇ
 62
    7
 10
138.53280487554031
 20
2431.5964931959279
 40
21.828124999999972
 41
1.1764705882352955
 50
0
  1
é╠éµéñé╔è¯ô_é­ìçéÝé╣é─é¡é¥é│éóüB
  0
TEXT
  8
_0-3_âh__âÇ
 62
    7
 10
138.53280487554031
 20
2351.5964931959275
 40
21.828125000000114
 41
1.1764705882352882
 50
0
  1
é▄é¢âgâbâvâAâôâOâïâ`âàü[âuüAâ{âgâÇâAâôâOâï
  0
TEXT
  8
_0-3_âh__âÇ
 62
    7
 10
138.53280487554031
 20
2310.5998077975123
 40
21.828125000000114
 41
1.1764705882352882
 50
0
  1
â`âàü[âué═èpôxé­Æ▓É▀é┼é½éÚéµéñé╔é╚é┴é─é¿éÞüA
  0
TEXT
  8
_0-3_âh__âÇ
 62
    7
 10
138.53280487554031
 20
2268.5998077975128
 40
21.828124999999972
 41
1.1764705882352957
 50
0
  1
ë±ô]é│é╣éÚé▒éãé╔éµé┴é─èpôxé¬éOüïé®éþéRéOüï
  0
TEXT
  8
_0-3_âh__âÇ
 62
    7
 10
138.53280487554031
 20
2218.4906362639044
 40
21.828125000000114
 41
1.1764705882352882
 50
0
  1
é▄é┼ï╚é░éÚé▒éãé¬é┼é½é▄éÀüB
  0
TEXT
  8
_0-3_âh__âÇ
 62
    7
 10
138.53280487554031
 20
2170.4906362639044
 40
21.828124999999972
 41
1.1764705882352955
 50
0
  1
î╗ÅÛé╔ìçéÝé╣é─ò¤ìXéÁé─é¡é¥é│éóüB
  0
TEXT
  8
_0-3_âh__âÇ
 62
    7
 10
147.04899019130266
 20
2032.186057257336
 40
23.71840375675653
 41
1.1764705882352933
 50
0
  1
ü@éÓé╠é═üméPünüDüméRünüDüméTünéãé╚éÞé▄éÀüB
  0
TEXT
  8
_0-3_âh__âÇ
 62
    7
 10
169.53280487554025
 20
1556.7200000000016
 40
21.828125000000025
 41
1.1764705882352928
 50
0
  1
ëäÆÀâ`âàü[âué═ïùùúé╔éµé┴é─òKùvé╚
  0
TEXT
  8
_0-3_âh__âÇ
 62
    7
 10
169.53280487554025
 20
1514.7200000000016
 40
21.828125000000007
 41
1.1764705882352937
 50
0
  1
ÆÀé│é¥é»û{Éöé­é┬é╚éóé┼é¡é¥é│éóüB
  0
TEXT
  8
_0-3_âh__âÇ
 62
    7
 10
169.53280487554025
 20
1441.9575000000018
 40
21.828125000000004
 41
1.1764705882352942
 50
0
  1
ëäÆÀâ`âàü[âué═ÆÀé│é¬éSéOéOéìéìéãéUéOéOéìéìé¬
  0
TEXT
  8
_0-3_âh__âÇ
 62
    7
 10
169.53280487554025
 20
1412.7200000000016
 40
21.828125
 41
1.1764705882352935
 50
0
  1
éáéÞé▄éÀüB
  0
LINE
  8
_f-f_
  6
CONTINUOUS
 62
    7
 10
1007.3191989802219
 20
2464.2327520502349
 11
1006.479239926237
 21
2450.6311467238534
  0
LINE
  8
_f-f_
  6
CONTINUOUS
 62
    7
 10
1007.0944426275968
 20
2464.2327520502349
 11
1007.3191989802219
 21
2464.2327520502349
  0
LINE
  8
_f-f_
  6
CONTINUOUS
 62
    7
 10
1007.2366910666244
 20
2466.5323430486787
 11
1007.0944426275968
 21
2464.2327520502349
  0
LINE
  8
_f-f_
  6
CONTINUOUS
 62
    7
 10
1007.46120885577
 20
2466.5323430486787
 11
1007.2366910666244
 21
2466.5323430486787
  0
LINE
  8
_f-f_
  6
CONTINUOUS
 62
    7
 10
1008.0976642130121
 20
2476.838577068178
 11
1007.46120885577
 21
2466.5323430486787
  0
LINE
  8
_f-f_
  6
CONTINUOUS
 62
    7
 10
1008.5481968953466
 20
2480.8048933705436
 11
1008.4591199913777
 21
2480.3138591633115
  0
LINE
  8
_f-f_
  6
CONTINUOUS
 62
    7
 10
1008.4591199913777
 20
2480.3138591633115
 11
1008.3794031784566
 21
2479.8214662902042
  0
LINE
  8
_f-f_
  6
CONTINUOUS
 62
    7
 10
1008.3794031784566
 20
2479.8214662902042
 11
1008.3090464565905
 21
2479.3277147512213
  0
LINE
  8
_f-f_
  6
CONTINUOUS
 62
    7
 10
1008.3090464565905
 20
2479.3277147512213
 11
1008.2480498257721
 21
2478.8326045463627
  0
LINE
  8
_f-f_
  6
CONTINUOUS
 62
    7
 10
1008.2480498257721
 20
2478.8326045463627
 11
1008.1964132860088
 21
2478.3361356756286
  0
LINE
  8
_f-f_
  6
CONTINUOUS
 62
    7
 10
1008.1964132860088
 20
2478.3361356756286
 11
1008.1541368372929
 21
2477.8383081390189
  0
LINE
  8
_f-f_
  6
CONTINUOUS
 62
    7
 10
1008.1541368372929
 20
2477.8383081390189
 11
1008.1212204796249
 21
2477.3391219365335
  0
LINE
  8
_f-f_
  6
CONTINUOUS
 62
    7
 10
1008.1212204796249
 20
2477.3391219365335
 11
1008.0976642130121
 21
2476.8385770681734
  0
LINE
  8
_f-f_
  6
CONTINUOUS
 62
    7
 10
1010.4739134968697
 20
2486.7912860102933
 11
1010.1539911734219
 21
2486.0755472366432
  0
LINE
  8
_f-f_
  6
CONTINUOUS
 62
    7
 10
1010.1539911734219
 20
2486.0755472366432
 11
1009.8566996351877
 21
2485.3505055183309
  0
LINE
  8
_f-f_
  6
CONTINUOUS
 62
    7
 10
1009.8566996351877
 20
2485.3505055183309
 11
1009.5820388821742
 21
2484.6161608553571
  0
LINE
  8
_f-f_
  6
CONTINUOUS
 62
    7
 10
1009.5820388821742
 20
2484.6161608553571
 11
1009.3300089143743
 21
2483.8725132477207
  0
LINE
  8
_f-f_
  6
CONTINUOUS
 62
    7
 10
1009.3300089143743
 20
2483.8725132477207
 11
1009.1006097317879
 21
2483.1195626954222
  0
LINE
  8
_f-f_
  6
CONTINUOUS
 62
    7
 10
1009.1006097317879
 20
2483.1195626954222
 11
1008.8938413344225
 21
2482.3573091984622
  0
LINE
  8
_f-f_
  6
CONTINUOUS
 62
    7
 10
1008.8938413344225
 20
2482.3573091984622
 11
1008.7097037222777
 21
2481.5857527568396
  0
LINE
  8
_f-f_
  6
CONTINUOUS
 62
    7
 10
1008.7097037222777
 20
2481.5857527568396
 11
1008.5481968953466
 21
2480.8048933705554
  0
LINE
  8
_f-f_
  6
CONTINUOUS
 62
    7
 10
1036.4122358966054
 20
2539.6889791469666
 11
1010.4739134968697
 21
2486.7912860102933
  0
LINE
  8
_f-f_
  6
CONTINUOUS
 62
    7
 10
1062.0194820094043
 20
2565.525529340252
 11
1057.9456059849913
 21
2563.4016201594095
  0
LINE
  8
_f-f_
  6
CONTINUOUS
 62
    7
 10
1057.9456059849913
 20
2563.4016201594095
 11
1054.121150034953
 21
2560.9618082376187
  0
LINE
  8
_f-f_
  6
CONTINUOUS
 62
    7
 10
1054.121150034953
 20
2560.9618082376187
 11
1050.5461141592898
 21
2558.2060935748805
  0
LINE
  8
_f-f_
  6
CONTINUOUS
 62
    7
 10
1050.5461141592898
 20
2558.2060935748805
 11
1047.2204983580016
 21
2555.1344761711935
  0
LINE
  8
_f-f_
  6
CONTINUOUS
 62
    7
 10
1047.2204983580016
 20
2555.1344761711935
 11
1044.1443026310883
 21
2551.7469560265595
  0
LINE
  8
_f-f_
  6
CONTINUOUS
 62
    7
 10
1044.1443026310883
 20
2551.7469560265595
 11
1041.3175269785499
 21
2548.0435331409767
  0
LINE
  8
_f-f_
  6
CONTINUOUS
 62
    7
 10
1041.3175269785499
 20
2548.0435331409767
 11
1038.7401714003938
 21
2544.0242075144461
  0
LINE
  8
_f-f_
  6
CONTINUOUS
 62
    7
 10
1038.7401714003938
 20
2544.0242075144461
 11
1036.4122358966054
 21
2539.6889791469675
  0
LINE
  8
_f-f_
  6
CONTINUOUS
 62
    7
 10
1112.6255362040831
 20
2589.221451261642
 11
1062.0194820094043
 21
2565.5255293402524
  0
LINE
  8
_f-f_
  6
CONTINUOUS
 62
    7
 10
1157.9489392260805
 20
2600.1825841959821
 11
1152.0809666662392
 21
2599.8826967027426
  0
LINE
  8
_f-f_
  6
CONTINUOUS
 62
    7
 10
1152.0809666662392
 20
2599.8826967027426
 11
1146.2708647298571
 21
2599.2770223170596
  0
LINE
  8
_f-f_
  6
CONTINUOUS
 62
    7
 10
1146.2708647298571
 20
2599.2770223170596
 11
1140.5186334169268
 21
2598.3655610389324
  0
LINE
  8
_f-f_
  6
CONTINUOUS
 62
    7
 10
1140.5186334169268
 20
2598.3655610389324
 11
1134.8242727274558
 21
2597.1483128683617
  0
LINE
  8
_f-f_
  6
CONTINUOUS
 62
    7
 10
1134.8242727274558
 20
2597.1483128683617
 11
1129.1877826614293
 21
2595.6252778053472
  0
LINE
  8
_f-f_
  6
CONTINUOUS
 62
    7
 10
1129.1877826614293
 20
2595.6252778053472
 11
1123.609163218862
 21
2593.7964558498888
  0
LINE
  8
_f-f_
  6
CONTINUOUS
 62
    7
 10
1123.609163218862
 20
2593.7964558498888
 11
1118.0884143997466
 21
2591.6618470019871
  0
LINE
  8
_f-f_
  6
CONTINUOUS
 62
    7
 10
1118.0884143997466
 20
2591.6618470019871
 11
1112.6255362040756
 21
2589.2214512616411
  0
LINE
  8
_f-f_
  6
CONTINUOUS
 62
    7
 10
1203.2723422480706
 20
2589.2214512616424
 11
1197.8094640524071
 21
2591.661847001988
  0
LINE
  8
_f-f_
  6
CONTINUOUS
 62
    7
 10
1197.8094640524071
 20
2591.661847001988
 11
1192.2887152332917
 21
2593.7964558498898
  0
LINE
  8
_f-f_
  6
CONTINUOUS
 62
    7
 10
1192.2887152332917
 20
2593.7964558498898
 11
1186.7100957907244
 21
2595.6252778053477
  0
LINE
  8
_f-f_
  6
CONTINUOUS
 62
    7
 10
1186.7100957907244
 20
2595.6252778053477
 11
1181.0736057246979
 21
2597.1483128683622
  0
LINE
  8
_f-f_
  6
CONTINUOUS
 62
    7
 10
1181.0736057246979
 20
2597.1483128683622
 11
1175.3792450352269
 21
2598.3655610389324
  0
LINE
  8
_f-f_
  6
CONTINUOUS
 62
    7
 10
1175.3792450352269
 20
2598.3655610389324
 11
1169.6270137222969
 21
2599.2770223170596
  0
LINE
  8
_f-f_
  6
CONTINUOUS
 62
    7
 10
1169.6270137222969
 20
2599.2770223170596
 11
1163.8169117859145
 21
2599.882696702743
  0
LINE
  8
_f-f_
  6
CONTINUOUS
 62
    7
 10
1163.8169117859145
 20
2599.882696702743
 11
1157.9489392260732
 21
2600.1825841959821
  0
LINE
  8
_f-f_
  6
CONTINUOUS
 62
    7
 10
1253.8783964427496
 20
2565.5255293402524
 11
1203.2723422480706
 21
2589.2214512616424
  0
LINE
  8
_f-f_
  6
CONTINUOUS
 62
    7
 10
1279.4856425555483
 20
2539.6889791469666
 11
1277.1577070517599
 21
2544.0242075144452
  0
LINE
  8
_f-f_
  6
CONTINUOUS
 62
    7
 10
1277.1577070517599
 20
2544.0242075144452
 11
1274.5803514736035
 21
2548.0435331409758
  0
LINE
  8
_f-f_
  6
CONTINUOUS
 62
    7
 10
1274.5803514736035
 20
2548.0435331409758
 11
1271.7535758210654
 21
2551.7469560265581
  0
LINE
  8
_f-f_
  6
CONTINUOUS
 62
    7
 10
1271.7535758210654
 20
2551.7469560265581
 11
1268.6773800941521
 21
2555.1344761711925
  0
LINE
  8
_f-f_
  6
CONTINUOUS
 62
    7
 10
1268.6773800941521
 20
2555.1344761711925
 11
1265.3517642928709
 21
2558.2060935748791
  0
LINE
  8
_f-f_
  6
CONTINUOUS
 62
    7
 10
1265.3517642928709
 20
2558.2060935748791
 11
1261.776728417208
 21
2560.9618082376173
  0
LINE
  8
_f-f_
  6
CONTINUOUS
 62
    7
 10
1261.776728417208
 20
2560.9618082376173
 11
1257.9522724671624
 21
2563.4016201594086
  0
LINE
  8
_f-f_
  6
CONTINUOUS
 62
    7
 10
1257.9522724671624
 20
2563.4016201594086
 11
1253.8783964427496
 21
2565.5255293402515
  0
LINE
  8
_f-f_
  6
CONTINUOUS
 62
    7
 10
1305.4239649552842
 20
2486.7912860102938
 11
1279.4856425555483
 21
2539.6889791469666
  0
LINE
  8
_f-f_
  6
CONTINUOUS
 62
    7
 10
1307.3496815568071
 20
2480.8048933705554
 11
1307.1881747298762
 21
2481.5857527568396
  0
LINE
  8
_f-f_
  6
CONTINUOUS
 62
    7
 10
1307.1881747298762
 20
2481.5857527568396
 11
1307.0040371177313
 21
2482.3573091984622
  0
LINE
  8
_f-f_
  6
CONTINUOUS
 62
    7
 10
1307.0040371177313
 20
2482.3573091984622
 11
1306.7972687203658
 21
2483.1195626954222
  0
LINE
  8
_f-f_
  6
CONTINUOUS
 62
    7
 10
1306.7972687203658
 20
2483.1195626954222
 11
1306.5678695377796
 21
2483.8725132477207
  0
LINE
  8
_f-f_
  6
CONTINUOUS
 62
    7
 10
1306.5678695377796
 20
2483.8725132477207
 11
1306.3158395699795
 21
2484.6161608553571
  0
LINE
  8
_f-f_
  6
CONTINUOUS
 62
    7
 10
1306.3158395699795
 20
2484.6161608553571
 11
1306.0411788169658
 21
2485.3505055183314
  0
LINE
  8
_f-f_
  6
CONTINUOUS
 62
    7
 10
1306.0411788169658
 20
2485.3505055183314
 11
1305.7438872787388
 21
2486.0755472366436
  0
LINE
  8
_f-f_
  6
CONTINUOUS
 62
    7
 10
1305.7438872787388
 20
2486.0755472366436
 11
1305.4239649552842
 21
2486.7912860102938
  0
LINE
  8
_f-f_
  6
CONTINUOUS
 62
    7
 10
1307.8002142391415
 20
2476.8385770681875
 11
1307.7766579725217
 21
2477.3391219365471
  0
LINE
  8
_f-f_
  6
CONTINUOUS
 62
    7
 10
1307.7766579725217
 20
2477.3391219365471
 11
1307.7437416148609
 21
2477.8383081390311
  0
LINE
  8
_f-f_
  6
CONTINUOUS
 62
    7
 10
1307.7437416148609
 20
2477.8383081390311
 11
1307.7014651661448
 21
2478.3361356756395
  0
LINE
  8
_f-f_
  6
CONTINUOUS
 62
    7
 10
1307.7014651661448
 20
2478.3361356756395
 11
1307.6498286263745
 21
2478.8326045463727
  0
LINE
  8
_f-f_
  6
CONTINUOUS
 62
    7
 10
1307.6498286263745
 20
2478.8326045463727
 11
1307.5888319955559
 21
2479.3277147512299
  0
LINE
  8
_f-f_
  6
CONTINUOUS
 62
    7
 10
1307.5888319955559
 20
2479.3277147512299
 11
1307.5184752736895
 21
2479.8214662902119
  0
LINE
  8
_f-f_
  6
CONTINUOUS
 62
    7
 10
1307.5184752736895
 20
2479.8214662902119
 11
1307.4387584607757
 21
2480.3138591633183
  0
LINE
  8
_f-f_
  6
CONTINUOUS
 62
    7
 10
1307.4387584607757
 20
2480.3138591633183
 11
1307.3496815568071
 21
2480.8048933705495
  0
LINE
  8
_f-f_
  6
CONTINUOUS
 62
    7
 10
1308.4366695963836
 20
2466.5323430486787
 11
1307.8002142391415
 21
2476.838577068178
  0
LINE
  8
_f-f_
  6
CONTINUOUS
 62
    7
 10
1308.8034358245568
 20
2464.2327520502386
 11
1308.6611873855293
 21
2466.5323430486787
  0
LINE
  8
_f-f_
  6
CONTINUOUS
 62
    7
 10
1308.5786794719318
 20
2464.2327520502381
 11
1308.8034358245568
 21
2464.2327520502386
  0
LINE
  8
_f-f_
  6
CONTINUOUS
 62
    7
 10
1309.4186385259168
 20
2450.6311467238534
 11
1308.5786794719318
 21
2464.2327520502381
  0
POINT
  8
_0-3_âh__âÇ
 62
    7
 10
1028.7408720513415
 20
2470.4700000000012
  0
LINE
  8
_0-3_âh__âÇ
  6
CONTINUOUS
 62
    7
 10
1192.8780502155571
 20
2475.9759241343163
 11
1255.6776231449041
 21
2551.1492729881074
  0
LINE
  8
_0-3_âh__âÇ
  6
CONTINUOUS
 62
    7
 10
1294.4164688430394
 20
2475.9759241343163
 11
1192.8780502155571
 21
2475.9759241343163
  0
LINE
  8
_0-3_âh__âÇ
  6
CONTINUOUS
 62
    7
 10
1293.8752027706801
 20
2483.352809084709
 11
1293.3248422331164
 21
2488.2536057782686
  0
LINE
  8
_0-3_âh__âÇ
  6
CONTINUOUS
 62
    7
 10
1294.4164688430394
 20
2475.9759241343163
 11
1294.2835114419361
 21
2478.4381382939132
  0
LINE
  8
_0-3_âh__âÇ
  6
CONTINUOUS
 62
    7
 10
1285.1448378855787
 20
2513.9092193256702
 11
1278.6620968405844
 21
2525.7415374498028
  0
LINE
  8
_0-3_âh__âÇ
  6
CONTINUOUS
 62
    7
 10
1294.2835114419361
 20
2478.4381382939132
 11
1293.8752027706801
 21
2483.352809084709
  0
LINE
  8
_0-3_âh__âÇ
  6
CONTINUOUS
 62
    7
 10
1261.4428375707287
 20
2546.4446743157105
 11
1255.6776231449041
 21
2551.1492729881074
  0
LINE
  8
_0-3_âh__âÇ
  6
CONTINUOUS
 62
    7
 10
1270.7178461031365
 20
2536.6465163066237
 11
1261.4428375707287
 21
2546.4446743157105
  0
LINE
  8
_0-3_âh__âÇ
  6
CONTINUOUS
 62
    7
 10
1278.6620968405844
 20
2525.7415374498028
 11
1270.7178461031365
 21
2536.6465163066237
  0
LINE
  8
_0-3_âh__âÇ
  6
CONTINUOUS
 62
    7
 10
1290.0593718640671
 20
2501.3443062968636
 11
1285.1448378855787
 21
2513.9092193256702
  0
LINE
  8
_0-3_âh__âÇ
  6
CONTINUOUS
 62
    7
 10
1293.3248120235587
 20
2488.2536002726683
 11
1290.0593718640671
 21
2501.3443062968636
  0
LINE
  8
_0-3_âh__âÇ
  6
CONTINUOUS
 62
    7
 10
1030.2692101843788
 20
2466.2921051231206
 11
1059.0340159888076
 21
2416.4700000000016
  0
LINE
  8
_0-3_âh__âÇ
  6
CONTINUOUS
 62
    7
 10
1059.0340159888076
 20
2416.4700000000016
 11
1126.0157275384993
 21
2416.4700000000016
  0
TEXT
  8
_0-3_âh__âÇ
 62
    7
 10
1129.5328048755403
 20
2405.6956381787477
 40
16.288411458333201
 41
1.1764705882353015
 50
0
  1
è¯ô_ç@
  0
LINE
  8
_0-3_âh__âÇ
  6
CONTINUOUS
 62
    7
 10
1587.5328048755405
 20
1895.0112850496089
 11
1588.7328048755373
 21
1895.0112850496089
  0
LINE
  8
_0-3_âh__âÇ
  6
CONTINUOUS
 62
    7
 10
2086.3328048755429
 20
1895.0112850496089
 11
2087.5328048755405
 21
1895.0112850496089
  0
LINE
  8
_0-3_âh__âÇ
  6
CONTINUOUS
 62
    7
 10
1587.5328048755405
 20
1945.0112850496089
 11
1697.5328048755405
 21
1945.0112850496089
  0
LINE
  8
_0-3_âh__âÇ
  6
CONTINUOUS
 62
    7
 10
1977.5328048755405
 20
1945.0112850496089
 11
2087.5328048755405
 21
1945.0112850496089
  0
LINE
  8
_0-3_âh__âÇ
  6
CONTINUOUS
 62
    7
 10
1697.5328048755405
 20
1945.0112850496089
 11
1705.8666439299923
 21
2072.4700000000016
  0
LINE
  8
_0-3_âh__âÇ
  6
CONTINUOUS
 62
    7
 10
1977.5328048755405
 20
1945.0112850496089
 11
1969.1976007237322
 21
2072.4700000000016
  0
LINE
  8
_0-3_âh__âÇ
  6
CONTINUOUS
 62
    7
 10
1587.5328048755405
 20
1945.0112850496089
 11
1587.5328048755405
 21
1895.0112850496089
  0
LINE
  8
_0-3_âh__âÇ
  6
CONTINUOUS
 62
    7
 10
2087.5328048755405
 20
1945.0112850496089
 11
2087.5328048755405
 21
1895.0112850496089
  0
ARC
  8
_0-3_âh__âÇ
  6
CONTINUOUS
 62
    7
 10
1966.53280487554
 20
2072.3434877821282
 40
2.667797444861979
 50
2.7180984927244287
 51
138.56285252572152
  0
ARC
  8
_0-3_âh__âÇ
  6
CONTINUOUS
 62
    7
 10
1708.5328048755403
 20
2072.3434877821282
 40
2.6677972674806307
 50
41.437147474268116
 51
179.82000000000116
  0
LINE
  8
_0-3_âh__âÇ
  6
CONTINUOUS
 62
    7
 10
1588.7328048755373
 20
1943.8112850496086
 11
1588.7328048755373
 21
1895.0112850496089
  0
LINE
  8
_0-3_âh__âÇ
  6
CONTINUOUS
 62
    7
 10
1588.7328048755373
 20
1943.8112850496086
 11
1698.6569056900919
 21
1943.8112850496086
  0
LINE
  8
_0-3_âh__âÇ
  6
CONTINUOUS
 62
    7
 10
1976.4087160744532
 20
1943.8112850496086
 11
2086.3328048755429
 21
1943.8112850496086
  0
LINE
  8
_0-3_âh__âÇ
  6
CONTINUOUS
 62
    7
 10
2086.3328048755429
 20
1943.8112850496086
 11
2086.3328048755429
 21
1895.0112850496089
  0
LINE
  8
_0-3_âh__âÇ
  6
CONTINUOUS
 62
    7
 10
1976.4087160744532
 20
1943.8112850496086
 11
1968.0001584521235
 21
2072.3916928728836
  0
ARC
  8
_0-3_âh__âÇ
  6
CONTINUOUS
 62
    7
 10
1966.53280487554
 20
2072.3434877821282
 40
1.4677972697408295
 50
1.8815882829319472
 51
128.69477640291305
  0
ARC
  8
_0-3_âh__âÇ
  6
CONTINUOUS
 62
    7
 10
1708.5328048755403
 20
2072.3434877821282
 40
1.4677972631793723
 50
51.125223696062584
 51
178.11966059515407
  0
LINE
  8
_0-3_âh__âÇ
  6
CONTINUOUS
 62
    7
 10
1698.6569056900919
 20
1943.8112850496086
 11
1707.0640870366406
 21
2072.3917056430282
  0
LINE
  8
_0-3_âh__âÇ
  6
CONTINUOUS
 62
    7
 10
1710.5328048755403
 20
2074.1090308318508
 11
1709.4540243600352
 21
2073.4861966108265
  0
LINE
  8
_0-3_âh__âÇ
  6
CONTINUOUS
 62
    7
 10
1964.5328048755403
 20
2074.1090308318508
 11
1965.6115853849553
 21
2073.4861966143435
  0
POINT
  8
_0-3_âh__âÇ
 62
    7
 10
1708.5327362691755
 20
2075.0112850496089
  0
LINE
  8
_0-3_âh__âÇ
  6
CONTINUOUS
 62
    7
 10
869.21829763700248
 20
1064.4700000000016
 11
884.80675490511953
 21
1037.4700000000016
  0
LINE
  8
_0-3_âh__âÇ
  6
CONTINUOUS
 62
    7
 10
884.80675490511953
 20
1037.4700000000016
 11
951.78846645481121
 21
1037.4700000000016
  0
TEXT
  8
_0-3_âh__âÇ
 62
    7
 10
954.7884664548111
 20
1026.6956381787472
 40
16.288411458333343
 41
1.1764705882352939
 50
0
  1
è¯ô_çC
  0
LINE
  8
_0-3_âh__âÇ
  6
CONTINUOUS
 62
    7
 10
869.53280487554025
 20
1425.077695154589
 11
898.29761067996913
 21
1463.077695154589
  0
LINE
  8
_0-3_âh__âÇ
  6
CONTINUOUS
 62
    7
 10
898.29761067996913
 20
1463.077695154589
 11
941.27932222966081
 21
1463.077695154589
  0
TEXT
  8
_0-3_âh__âÇ
 62
    7
 10
950.27932222966069
 20
1452.3033333333346
 40
16.288411458333336
 41
1.1764705882352942
 50
0
  1
è¯ô_çBüf
  0
LINE
  8
_0-3_âh__âÇ
  6
CONTINUOUS
 62
    7
 10
1043.5273797711782
 20
1021.4700075490333
 11
1038.168723008974
 21
1041.4687868459082
  0
LINE
  8
_0-3_âh__âÇ
  6
CONTINUOUS
 62
    7
 10
1038.168723008974
 20
1041.4687868459082
 11
1048.8860365333824
 21
1041.4687868459082
  0
LINE
  8
_0-3_âh__âÇ
  6
CONTINUOUS
 62
    7
 10
1048.8860365333824
 20
1041.4687868459082
 11
1043.5273797711782
 21
1021.4700075490333
  0
LINE
  8
_0-3_âh__âÇ
  6
CONTINUOUS
 62
    7
 10
1043.5273797711782
 20
1421.470020899812
 11
1048.8860365333824
 21
1401.471241602937
  0
LINE
  8
_0-3_âh__âÇ
  6
CONTINUOUS
 62
    7
 10
1048.8860365333824
 20
1401.471241602937
 11
1038.168723008974
 21
1401.471241602937
  0
LINE
  8
_0-3_âh__âÇ
  6
CONTINUOUS
 62
    7
 10
1038.168723008974
 20
1401.471241602937
 11
1043.5273797711782
 21
1421.470020899812
  0
LINE
  8
_0-3_âh__âÇ
  6
CONTINUOUS
 62
    7
 10
1431.7508726998788
 20
1009.4700133507754
 11
1426.3922159376743
 21
1029.4687926476504
  0
LINE
  8
_0-3_âh__âÇ
  6
CONTINUOUS
 62
    7
 10
1426.3922159376743
 20
1029.4687926476504
 11
1437.1095294620829
 21
1029.4687926476504
  0
LINE
  8
_0-3_âh__âÇ
  6
CONTINUOUS
 62
    7
 10
1437.1095294620829
 20
1029.4687926476504
 11
1431.7508726998788
 21
1009.4700133507754
  0
LINE
  8
_0-3_âh__âÇ
  6
CONTINUOUS
 62
    7
 10
1431.7508726998788
 20
1609.4700000000016
 11
1437.1095294620829
 21
1589.4712207031266
  0
LINE
  8
_0-3_âh__âÇ
  6
CONTINUOUS
 62
    7
 10
1437.1095294620829
 20
1589.4712207031266
 11
1426.3922159376743
 21
1589.4712207031266
  0
LINE
  8
_0-3_âh__âÇ
  6
CONTINUOUS
 62
    7
 10
1426.3922159376743
 20
1589.4712207031266
 11
1431.7508726998788
 21
1609.4700000000016
  0
TEXT
  8
_0-3_âh__âÇ
 62
    7
 10
133.53280487554031
 20
1974.674134072568
 40
24.253472222222285
 41
1.1764705882352908
 50
0
  1
üªÄµòté╔é═üAâIâvâVâçâôòié╠üméQünüDüméUün
  0
TEXT
  8
_0-3_âh__âÇ
 62
    7
 10
133.53280487554031
 20
1933.3312600672402
 40
24.253472222222214
 41
1.1764705882352942
 50
0
  1
ü@é¬òKùvéãé╚éÞé▄éÀ
  0
TEXT
  8
_0-3_âh__âÇ
 62
    7
 10
133.53280487554031
 20
1886.9739176723347
 40
24.253472222222285
 41
1.1764705882352908
 50
0
  1
üªâ`âàü[âtüJé­ëäÆÀéÁé¢éóÅÛìçé═üméSüné╠
  0
TEXT
  8
_0-3_âh__âÇ
 62
    7
 10
133.53280487554031
 20
1845.6310436670071
 40
24.253472222222214
 41
1.1764705882352946
 50
0
  1
ü@ëäÆÀâ`âàü[âtüJé­î╗ÅÛé╔ë×éÂé─é¿æIéÐ
  0
TEXT
  8
_0-3_âh__âÇ
 62
    7
 10
133.53280487554031
 20
1806.7692536009968
 40
24.253472222222214
 41
1.1764705882352933
 50
0
  1
ü@é¡é¥é│éóüB
  0
LINE
  8
_0-3_âh__âÇ
  6
CONTINUOUS
 62
    7
 10
1671.1525259310658
 20
1709.4700000000016
 11
2269.747971219178
 21
1709.4700000000016
  0
LINE
  8
_0-3_âh__âÇ
  6
CONTINUOUS
 62
    7
 10
2269.747971219178
 20
1709.4700000000016
 11
2269.747971219178
 21
949.47000000000162
  0
LINE
  8
_0-3_âh__âÇ
  6
CONTINUOUS
 62
    7
 10
2269.747971219178
 20
949.47000000000162
 11
1671.1525259310658
 21
949.47000000000162
  0
LINE
  8
_0-3_âh__âÇ
  6
CONTINUOUS
 62
    7
 10
1671.1525259310658
 20
949.47000000000162
 11
1671.1525259310658
 21
1709.4700000000016
  0
TEXT
  8
_0-3_âh__âÇ
 62
    7
 10
1700.1525259310586
 20
1641.0811111111129
 40
33.954861111111079
 41
1.1764705882352953
 50
0
  1
âAâôâOâïâ`âàü[âu
  0
TEXT
  8
_0-3_âh__âÇ
 62
    7
 10
1698.1527211483265
 20
1577.8213210524777
 40
21.828124999999989
 41
1.1764705882352946
 50
0
  1
âIâvâVâçâôòié╔é═éOüïü`éXéOüïé╔Æ▓É«é┼é½éÚ
  0
TEXT
  8
_0-3_âh__âÇ
 62
    7
 10
1698.1527211483265
 20
1534.2594932687575
 40
21.828124999999989
 41
1.1764705882352948
 50
0
  1
âAâôâOâïâ`âàü[âuéÓéáéÞé▄éÀ
  0
LINE
  8
_0-3_âh__âÇ
  6
CONTINUOUS
 62
    7
 10
1671.1525259310658
 20
1709.4700000000016
 11
2269.747971219178
 21
1709.4700000000016
  0
LINE
  8
_0-3_âh__âÇ
  6
CONTINUOUS
 62
    7
 10
2269.747971219178
 20
1709.4700000000016
 11
2269.747971219178
 21
1625.4700000000016
  0
LINE
  8
_0-3_âh__âÇ
  6
CONTINUOUS
 62
    7
 10
2269.747971219178
 20
1625.4700000000016
 11
1671.1525259310658
 21
1625.4700000000016
  0
LINE
  8
_0-3_âh__âÇ
  6
CONTINUOUS
 62
    7
 10
1671.1525259310658
 20
1625.4700000000016
 11
1671.1525259310658
 21
1709.4700000000016
  0
LINE
  8
_f-f_
  6
CONTINUOUS
 62
    7
 10
1961.0375775391803
 20
1005.0029613551733
 11
2198.0375775391808
 21
1005.0029613551733
  0
LINE
  8
_f-f_
  6
CONTINUOUS
 62
    7
 10
1961.0375775391803
 20
1090.9687726088046
 11
1961.0375775391803
 21
1005.0029613551733
  0
LINE
  8
_f-f_
  6
CONTINUOUS
 62
    7
 10
2198.0375775391808
 20
1154.4727312149798
 11
2198.0375775391808
 21
1005.0029613551733
  0
LINE
  8
_f-f_
  6
CONTINUOUS
 62
    7
 10
1961.0375775391803
 20
1099.250982052085
 11
2198.0375775391808
 21
1162.7549406582607
  0
LINE
  8
_f-f_
  6
CONTINUOUS
 62
    7
 10
1961.0375775391803
 20
1090.9687726088046
 11
2198.0375775391808
 21
1154.4727312149798
  0
ARC
  8
_f-f_
  6
CONTINUOUS
 62
    7
 10
1960.0023013587706
 20
1094.8324759139609
 40
3.9999999999996385
 50
104.99999999999444
 51
284.99999999999443
  0
LINE
  8
_f-f_
  6
CONTINUOUS
 62
    7
 10
1961.0375775391803
 20
1099.250982052085
 11
1961.0375775391803
 21
1090.9687726088055
  0
LINE
  8
_f-f_
  6
CONTINUOUS
 62
    7
 10
1961.0375775391803
 20
1099.250982052085
 11
1958.9670251783609
 21
1098.6961792191173
  0
ARC
  8
_f-f_
  6
CONTINUOUS
 62
    7
 10
2199.0728537195905
 20
1158.8912373531043
 40
3.9999999999998597
 50
284.99999999999443
 51
104.99999999999449
  0
LINE
  8
_f-f_
  6
CONTINUOUS
 62
    7
 10
2198.0375775391808
 20
1162.7549406582602
 11
2198.0375775391808
 21
1154.4727312149798
  0
LINE
  8
_f-f_
  6
CONTINUOUS
 62
    7
 10
2198.0375775391808
 20
1154.4727312149798
 11
2200.1081299000002
 21
1155.0275340479479
  0
LINE
  8
_f-f_
  6
CONTINUOUS
 62
    7
 10
2193.8964728175056
 20
1169.9275444357177
 11
2083.9267029575062
 21
1360.4007731294546
  0
LINE
  8
_f-f_
  6
CONTINUOUS
 62
    7
 10
1956.8964728175636
 20
1106.4235858293086
 11
1910.4306615638563
 21
1186.9047317354557
  0
LINE
  8
_f-f_
  6
CONTINUOUS
 62
    7
 10
2198.0375775391512
 20
1162.7549406583771
 11
1961.0375775392097
 21
1099.2509820519685
  0
ARC
  8
_f-f_
  6
CONTINUOUS
 62
    7
 10
2197.0023013587347
 20
1166.6186439635321
 40
3.9999999999999032
 50
285.00000000006247
 51
105.00000000006244
  0
LINE
  8
_f-f_
  6
CONTINUOUS
 62
    7
 10
2195.967025178325
 20
1170.4823472686876
 11
1956.8964728175636
 21
1106.4235858293082
  0
ARC
  8
_f-f_
  6
CONTINUOUS
 62
    7
 10
1957.9317489979805
 20
1102.5598825241541
 40
3.9999999999998876
 50
105.00000000006241
 51
285.00000000006247
  0
LINE
  8
_f-f_
  6
CONTINUOUS
 62
    7
 10
2193.8964728175056
 20
1169.9275444357172
 11
2198.0375775391512
 21
1162.7549406583771
  0
LINE
  8
_f-f_
  6
CONTINUOUS
 62
    7
 10
1956.8964728175636
 20
1106.4235858293091
 11
1961.0375775392097
 21
1099.2509820519685
  0
LINE
  8
_f-f_
  6
CONTINUOUS
 62
    7
 10
1961.0375775392097
 20
1099.2509820519695
 11
1958.9670251783903
 21
1098.6961792189995
  0
LINE
  8
_f-f_
  6
CONTINUOUS
 62
    7
 10
2079.7855982358597
 20
1367.5733769067938
 11
1906.28955684221
 21
1194.0773355127953
  0
ARC
  8
_f-f_
  6
CONTINUOUS
 62
    7
 10
2082.6140253606063
 20
1364.7449497820517
 40
3.9999999999999032
 50
315.00000000005133
 51
135.00000000005133
  0
LINE
  8
_f-f_
  6
CONTINUOUS
 62
    7
 10
2085.4424524853534
 20
1361.9165226573086
 11
1910.4306615638563
 21
1186.9047317354566
  0
ARC
  8
_f-f_
  6
CONTINUOUS
 62
    7
 10
1907.6022344391024
 20
1189.7331588601992
 40
3.9999999999998876
 50
135.00000000005133
 51
315.00000000005133
  0
LINE
  8
_f-f_
  6
CONTINUOUS
 62
    7
 10
2083.9267029575062
 20
1360.4007731294555
 11
2079.7855982358597
 21
1367.5733769067938
  0
LINE
  8
_f-f_
  6
CONTINUOUS
 62
    7
 10
1910.4306615638563
 20
1186.9047317354557
 11
1906.28955684221
 21
1194.0773355127953
  0
LINE
  8
_f-f_
  6
CONTINUOUS
 62
    7
 10
1906.28955684221
 20
1194.0773355127949
 11
1904.7738073143557
 21
1192.5615859849408
  0
LINE
  8
_f-f_
  6
CONTINUOUS
 62
    7
 10
1882.1397657650889
 20
1481.6842514884265
 11
2072.6129944588829
 21
1371.7144816285222
  0
LINE
  8
_f-f_
  6
CONTINUOUS
 62
    7
 10
1818.6358071587965
 20
1244.6842514884547
 11
1899.1169530649718
 21
1198.2184402347848
  0
LINE
  8
_f-f_
  6
CONTINUOUS
 62
    7
 10
1874.9671619877483
 20
1485.8253562100704
 11
1811.4632033814562
 21
1248.8253562100986
  0
ARC
  8
_f-f_
  6
CONTINUOUS
 62
    7
 10
1878.8308652929047
 20
1484.7900800296584
 40
3.9999999999999032
 50
344.99999999996606
 51
164.99999999996612
  0
LINE
  8
_f-f_
  6
CONTINUOUS
 62
    7
 10
1882.6945685980609
 20
1483.7548038492469
 11
1818.6358071587965
 21
1244.6842514884547
  0
ARC
  8
_f-f_
  6
CONTINUOUS
 62
    7
 10
1814.7721038536404
 20
1245.7195276688676
 40
3.9999999999998876
 50
164.99999999996612
 51
344.99999999996612
  0
LINE
  8
_f-f_
  6
CONTINUOUS
 62
    7
 10
1882.1397657650889
 20
1481.684251488427
 11
1874.9671619877483
 21
1485.8253562100704
  0
LINE
  8
_f-f_
  6
CONTINUOUS
 62
    7
 10
1818.6358071587965
 20
1244.6842514884552
 11
1811.4632033814562
 21
1248.8253562100986
  0
LINE
  8
_f-f_
  6
CONTINUOUS
 62
    7
 10
1811.4632033814562
 20
1248.825356210099
 11
1810.9084005484915
 21
1246.7548038492787
  0
LINE
  8
_f-f_
  6
CONTINUOUS
 62
    7
 10
2079.7855982362234
 20
1367.5733769068788
 11
1906.2895568423121
 21
1194.0773355131419
  0
ARC
  8
_f-f_
  6
CONTINUOUS
 62
    7
 10
2076.9571711114768
 20
1370.401804031625
 40
3.9999999999999032
 50
314.99999999997721
 51
134.99999999997721
  0
LINE
  8
_f-f_
  6
CONTINUOUS
 62
    7
 10
2074.1287439867374
 20
1373.2302311563731
 11
1899.1169530649718
 21
1198.2184402347862
  0
ARC
  8
_f-f_
  6
CONTINUOUS
 62
    7
 10
1901.9453801897109
 20
1195.3900131100381
 40
3.9999999999998876
 50
134.99999999997721
 51
314.99999999997726
  0
LINE
  8
_f-f_
  6
CONTINUOUS
 62
    7
 10
2072.6129944588829
 20
1371.7144816285213
 11
2079.7855982362234
 21
1367.5733769068788
  0
LINE
  8
_f-f_
  6
CONTINUOUS
 62
    7
 10
1899.1169530649718
 20
1198.2184402347857
 11
1906.2895568423121
 21
1194.0773355131419
  0
LINE
  8
_f-f_
  6
CONTINUOUS
 62
    7
 10
1906.2895568423121
 20
1194.0773355131423
 11
1904.7738073144574
 21
1192.561585985291
  0
LINE
  8
_f-f_
  6
CONTINUOUS
 62
    7
 10
1729.2151826846023
 20
1248.8253562100854
 11
1729.2151826846023
 21
1485.8253562100845
  0
LINE
  8
_f-f_
  6
CONTINUOUS
 62
    7
 10
1803.1809939382367
 20
1248.8253562100845
 11
1729.2151826846023
 21
1248.8253562100854
  0
LINE
  8
_f-f_
  6
CONTINUOUS
 62
    7
 10
1866.6849525444125
 20
1485.8253562100817
 11
1729.2151826846023
 21
1485.8253562100845
  0
LINE
  8
_f-f_
  6
CONTINUOUS
 62
    7
 10
1811.4632033815144
 20
1248.8253562100836
 11
1874.9671619876901
 21
1485.8253562100817
  0
LINE
  8
_f-f_
  6
CONTINUOUS
 62
    7
 10
1803.1809939382367
 20
1248.8253562100845
 11
1866.6849525444125
 21
1485.8253562100817
  0
ARC
  8
_f-f_
  6
CONTINUOUS
 62
    7
 10
1807.0446972433931
 20
1247.7900800296738
 40
3.9999999999996385
 50
165.00000000000554
 51
345.00000000000557
  0
LINE
  8
_f-f_
  6
CONTINUOUS
 62
    7
 10
1811.4632033815144
 20
1248.8253562100836
 11
1803.1809939382367
 21
1248.8253562100836
  0
LINE
  8
_f-f_
  6
CONTINUOUS
 62
    7
 10
1811.4632033815144
 20
1248.8253562100836
 11
1810.9084005485493
 21
1246.7548038492632
  0
ARC
  8
_f-f_
  6
CONTINUOUS
 62
    7
 10
1871.1034586825338
 20
1486.8606323904914
 40
3.9999999999998597
 50
345.00000000000557
 51
165.00000000000557
  0
LINE
  8
_f-f_
  6
CONTINUOUS
 62
    7
 10
1874.9671619876901
 20
1485.8253562100817
 11
1866.6849525444125
 21
1485.8253562100817
  0
LINE
  8
_f-f_
  6
CONTINUOUS
 62
    7
 10
1866.6849525444125
 20
1485.8253562100817
 11
1867.2397553773774
 21
1487.8959085709012
  0
LINE
  8
_0-3_âh__âÇ
  6
CONTINUOUS
 62
    7
 10
1006.479239926237
 20
2422.7193747714859
 11
1006.479239926237
 21
2365.3048656606375
  0
LINE
  8
_0-3_âh__âÇ
  6
CONTINUOUS
 62
    7
 10
1309.5186385259149
 20
2422.7193747714859
 11
1309.5186385259149
 21
2365.3048656606375
  0
CIRCLE
  8
_0-3_âh__âÇ
  6
CONTINUOUS
 62
    7
 10
1006.479239926237
 20
2365.4848656606378
 40
4
  0
CIRCLE
  8
_0-3_âh__âÇ
  6
CONTINUOUS
 62
    7
 10
1309.5186385259149
 20
2365.4848656606378
 40
4
  0
LINE
  8
_0-3_âh__âÇ
  6
CONTINUOUS
 62
    7
 10
979.25866453660308
 20
2450.6311467238534
 11
932.11433791650074
 21
2450.6311467238534
  0
LINE
  8
_0-3_âh__âÇ
  6
CONTINUOUS
 62
    7
 10
979.25866453660308
 20
2600.259711701694
 11
932.11433791650074
 21
2600.259711701694
  0
CIRCLE
  8
_0-3_âh__âÇ
  6
CONTINUOUS
 62
    7
 10
932.29433791650104
 20
2450.6311467238534
 40
4
  0
CIRCLE
  8
_0-3_âh__âÇ
  6
CONTINUOUS
 62
    7
 10
932.29433791650104
 20
2600.259711701694
 40
4
  0
LINE
  8
_0-3_âh__âÇ
  6
CONTINUOUS
 62
    7
 10
1587.5328048755405
 20
1875.7936991377155
 11
1587.5328048755405
 21
1833.3831611602054
  0
LINE
  8
_0-3_âh__âÇ
  6
CONTINUOUS
 62
    7
 10
2087.5328048755405
 20
1875.7936991377155
 11
2087.5328048755405
 21
1833.3831611602054
  0
CIRCLE
  8
_0-3_âh__âÇ
  6
CONTINUOUS
 62
    7
 10
1587.5328048755405
 20
1833.5631611602053
 40
4
  0
CIRCLE
  8
_0-3_âh__âÇ
  6
CONTINUOUS
 62
    7
 10
2087.5328048755405
 20
1833.5631611602053
 40
4
  0
LINE
  8
_0-3_âh__âÇ
  6
CONTINUOUS
 62
    7
 10
1698.6569056900919
 20
1928.8858563990693
 11
1698.6569056900919
 21
1898.880084761804
  0
LINE
  8
_0-3_âh__âÇ
  6
CONTINUOUS
 62
    7
 10
1976.4087160744532
 20
1928.8858563990693
 11
1976.4087160744532
 21
1898.880084761804
  0
CIRCLE
  8
_0-3_âh__âÇ
  6
CONTINUOUS
 62
    7
 10
1698.6569056900919
 20
1899.0600847618039
 40
4
  0
CIRCLE
  8
_0-3_âh__âÇ
  6
CONTINUOUS
 62
    7
 10
1976.4087160744532
 20
1899.0600847618039
 40
4
  0
LINE
  8
_0-3_âh__âÇ
  6
CONTINUOUS
 62
    7
 10
2106.454949207262
 20
1895.0112850496089
 11
2153.2071897540445
 21
1895.0112850496089
  0
LINE
  8
_0-3_âh__âÇ
  6
CONTINUOUS
 62
    7
 10
2106.454949207262
 20
1945.0112850496089
 11
2153.2071897540445
 21
1945.0112850496089
  0
CIRCLE
  8
_0-3_âh__âÇ
  6
CONTINUOUS
 62
    7
 10
2153.0271897540442
 20
1895.0112850496089
 40
4
  0
CIRCLE
  8
_0-3_âh__âÇ
  6
CONTINUOUS
 62
    7
 10
2153.0271897540442
 20
1945.0112850496089
 40
4
  0
LINE
  8
_0-3_âh__âÇ
  6
CONTINUOUS
 62
    7
 10
2106.5174492072624
 20
1945.0112850496089
 11
2153.2071897540445
 21
1945.0112850496089
  0
LINE
  8
_0-3_âh__âÇ
  6
CONTINUOUS
 62
    7
 10
2106.5174492072624
 20
2075.0112850496089
 11
2153.2071897540445
 21
2075.0112850496089
  0
CIRCLE
  8
_0-3_âh__âÇ
  6
CONTINUOUS
 62
    7
 10
2153.0271897540442
 20
1945.0112850496089
 40
4
  0
CIRCLE
  8
_0-3_âh__âÇ
  6
CONTINUOUS
 62
    7
 10
2153.0271897540442
 20
2075.0112850496089
 40
4
  0
LINE
  8
_0-3_âh__âÇ
  6
CONTINUOUS
 62
    7
 10
867.36320307792653
 20
1439.5076082123551
 11
867.36320307792653
 21
1502.403552984435
  0
LINE
  8
_0-3_âh__âÇ
  6
CONTINUOUS
 62
    7
 10
1112.3632030779265
 20
1439.5076082123551
 11
1112.3632030779265
 21
1502.403552984435
  0
CIRCLE
  8
_0-3_âh__âÇ
  6
CONTINUOUS
 62
    7
 10
867.36320307792653
 20
1502.2235529844352
 40
4
  0
CIRCLE
  8
_0-3_âh__âÇ
  6
CONTINUOUS
 62
    7
 10
1112.3632030779265
 20
1502.2235529844352
 40
4
  0
LINE
  8
_0-3_âh__âÇ
  6
CONTINUOUS
 62
    7
 10
1255.5866960066271
 20
1627.5075873125447
 11
1255.5866960066271
 21
1674.7890968497704
  0
LINE
  8
_0-3_âh__âÇ
  6
CONTINUOUS
 62
    7
 10
1500.5866960066271
 20
1627.5075873125447
 11
1500.5866960066271
 21
1674.7890968497704
  0
CIRCLE
  8
_0-3_âh__âÇ
  6
CONTINUOUS
 62
    7
 10
1255.5866960066271
 20
1674.6090968497706
 40
4
  0
CIRCLE
  8
_0-3_âh__âÇ
  6
CONTINUOUS
 62
    7
 10
1500.5866960066271
 20
1674.6090968497706
 40
4
  0
LINE
  8
_0-3_âh__âÇ
  6
CONTINUOUS
 62
    7
 10
1006.479239926237
 20
2365.4848656606378
 11
1309.5186385259149
 21
2365.4848656606378
  0
TEXT
  8
_0-3_âh__âÇ
 62
    7
 10
1131.5283509907824
 20
2365.5748656606374
 40
30.000000000000142
 41
1.1764705882352895
 50
0
  1
303
  0
LINE
  8
_0-3_âh__âÇ
  6
CONTINUOUS
 62
    7
 10
932.29433791650104
 20
2450.6311467238534
 11
932.29433791650104
 21
2600.259711701694
  0
TEXT
  8
_0-3_âh__âÇ
 62
    7
 10
932.20433791650464
 20
2481.3277821539496
 40
30.000000000000142
 41
1.1764705882352886
 50
90
  1
149.6
  0
LINE
  8
_0-3_âh__âÇ
  6
CONTINUOUS
 62
    7
 10
1587.5328048755405
 20
1833.5631611602053
 11
2087.5328048755405
 21
1833.5631611602053
  0
TEXT
  8
_0-3_âh__âÇ
 62
    7
 10
1811.0622166402463
 20
1833.6531611602054
 40
30
 41
1.1764705882352933
 50
0
  1
500
  0
LINE
  8
_0-3_âh__âÇ
  6
CONTINUOUS
 62
    7
 10
1698.6569056900919
 20
1899.0600847618039
 11
1976.4087160744532
 21
1899.0600847618039
  0
TEXT
  8
_0-3_âh__âÇ
 62
    7
 10
1793.4151638234473
 20
1899.150084761804
 40
30
 41
1.1764705882352944
 50
0
  1
277.8
  0
LINE
  8
_0-3_âh__âÇ
  6
CONTINUOUS
 62
    7
 10
2153.0271897540442
 20
1895.0112850496089
 11
2153.0271897540442
 21
1945.0112850496089
  0
TEXT
  8
_0-3_âh__âÇ
 62
    7
 10
2152.9371897540482
 20
1902.3642262260796
 40
30
 41
1.1764705882352959
 50
90
  1
50
  0
LINE
  8
_0-3_âh__âÇ
  6
CONTINUOUS
 62
    7
 10
2153.0271897540442
 20
1945.0112850496089
 11
2153.0271897540442
 21
2075.0112850496089
  0
TEXT
  8
_0-3_âh__âÇ
 62
    7
 10
2152.9371897540482
 20
1983.5406968143147
 40
30
 41
1.176470588235295
 50
90
  1
130
  0
LINE
  8
_0-3_âh__âÇ
  6
CONTINUOUS
 62
    7
 10
867.36320307792653
 20
1502.2235529844352
 11
1112.3632030779265
 21
1502.2235529844352
  0
LINE
  8
_0-3_âh__âÇ
  6
CONTINUOUS
 62
    7
 10
1255.5866960066271
 20
1674.6090968497706
 11
1500.5866960066271
 21
1674.6090968497706
  0
POINT
  8
_0-3_âh__âÇ
 62
    7
 10
1255.5866960066271
 20
1609.4700000000016
  0
POINT
  8
_0-3_âh__âÇ
 62
    7
 10
1255.5866960066271
 20
1059.4700000000016
  0
TEXT
  8
_0-3_âh__âÇ
 62
    7
 10
1054.9972715868744
 20
1211.8228416535951
 40
30
 41
1.176470588235295
 50
0
  1
400
  0
TEXT
  8
_0-3_âh__âÇ
 62
    7
 10
1441.850882238507
 20
1209.3692246727182
 40
30
 41
1.1764705882352919
 50
0
  1
600
  0
SOLID
  8
_0-3_âh__âÇ
  6
CONTINUOUS
 62
    8
 10
1043.5273797711782
 20
1421.470020899812
 11
1048.8860365333824
 21
1401.471241602937
 12
1038.168723008974
 22
1401.471241602937
 13
1038.168723008974
 23
1401.471241602937
  0
SOLID
  8
_0-3_âh__âÇ
  6
CONTINUOUS
 62
    8
 10
1043.5273797711782
 20
1021.4700075490333
 11
1038.168723008974
 21
1041.4687868459082
 12
1048.8860365333824
 22
1041.4687868459082
 13
1048.8860365333824
 23
1041.4687868459082
  0
SOLID
  8
_0-3_âh__âÇ
  6
CONTINUOUS
 62
    8
 10
1431.7508726998788
 20
1009.4700133507754
 11
1426.3922159376743
 21
1029.4687926476504
 12
1437.1095294620829
 22
1029.4687926476504
 13
1437.1095294620829
 23
1029.4687926476504
  0
SOLID
  8
_0-3_âh__âÇ
  6
CONTINUOUS
 62
    8
 10
1431.7508726998788
 20
1609.4700000000016
 11
1437.1095294620829
 21
1589.4712207031266
 12
1426.3922159376743
 22
1589.4712207031266
 13
1426.3922159376743
 23
1589.4712207031266
  0
LINE
  8
_0-3_âh__âÇ
  6
CONTINUOUS
 62
    7
 10
1043.5273797711782
 20
1041.4687868459082
 11
1043.5273797711782
 21
1401.471241602937
  0
LINE
  8
_0-3_âh__âÇ
  6
CONTINUOUS
 62
    7
 10
1431.7508726998788
 20
1029.4687926476504
 11
1431.7508726998788
 21
1589.4712207031266
  0
TEXT
  8
_0-3_âh__âÇ
 62
    7
 10
1643.4933636608696
 20
2793.0598484600382
 40
33.759409739280386
 41
1.176470588235293
 50
0
  1
üméUünÄUî§âJâoü[
  0
LINE
  8
_0-3_âh__âÇ
  6
CONTINUOUS
 62
    7
 10
1982.5328048755405
 20
2859.4700000000016
 11
1982.5328048755405
 21
2777.4700000000021
  0
LINE
  8
_0-3_âh__âÇ
  6
CONTINUOUS
 62
    7
 10
1982.5328048755405
 20
2777.4700000000021
 11
1617.5328048755405
 21
2777.4700000000021
  0
LINE
  8
_0-3_âh__âÇ
  6
CONTINUOUS
 62
    7
 10
1617.5328048755405
 20
2309.4700000000016
 11
1617.5328048755405
 21
2859.4700000000016
  0
LINE
  8
_0-3_âh__âÇ
  6
CONTINUOUS
 62
    7
 10
1617.5328048755405
 20
2859.4700000000016
 11
1982.5328048755405
 21
2859.4700000000016
  0
LINE
  8
_0-3_âh__âÇ
  6
CONTINUOUS
 62
    7
 10
1617.5328048755405
 20
2859.4700000000016
 11
2267.5328048755405
 21
2859.4700000000016
  0
LINE
  8
_0-3_âh__âÇ
  6
CONTINUOUS
 62
    7
 10
2267.5328048755405
 20
2859.4700000000016
 11
2267.5328048755405
 21
2309.4700000000016
  0
TEXT
  8
_0-3_âh__âÇ
 62
    7
 10
899.53280487554025
 20
2793.7755555555577
 40
33.954861111110972
 41
1.1764705882352993
 50
0
  1
üméPünâîâCâxâôâ_ü[âhü[âÇ
  0
LINE
  8
_0-3_âh__âÇ
  6
CONTINUOUS
 62
    7
 10
1475.5328048755403
 20
2780.4700000000012
 11
864.53280487554025
 21
2780.4700000000012
  0
LINE
  8
_0-3_âh__âÇ
  6
CONTINUOUS
 62
    7
 10
864.53280487554025
 20
2309.4700000000016
 11
864.53280487554025
 21
2859.4700000000016
  0
LINE
  8
_0-3_âh__âÇ
  6
CONTINUOUS
 62
    7
 10
864.53280487554025
 20
2859.4700000000016
 11
1475.5328048755403
 21
2859.4700000000016
  0
LINE
  8
_0-3_âh__âÇ
  6
CONTINUOUS
 62
    7
 10
864.53280487554025
 20
2859.4700000000016
 11
1475.5328048755403
 21
2859.4700000000016
  0
LINE
  8
_0-3_âh__âÇ
  6
CONTINUOUS
 62
    7
 10
1475.5328048755403
 20
2859.4700000000016
 11
1475.5328048755403
 21
2309.4700000000016
  0
POINT
  8
_0-3_âh__âÇ
 62
    7
 10
1747.5195457937627
 20
2708.940603215
  0
LINE
  8
_0-3_âh__âÇ
  6
CONTINUOUS
 62
    7
 10
1753.0434585147782
 20
2714.6866032149996
 11
1781.8082643192067
 21
2752.6866032149996
  0
LINE
  8
_0-3_âh__âÇ
  6
CONTINUOUS
 62
    7
 10
1781.8082643192067
 20
2752.6866032149996
 11
1824.7899758688984
 21
2752.6866032149996
  0
TEXT
  8
_0-3_âh__âÇ
 62
    7
 10
1833.7899758688986
 20
2741.9122413937453
 40
16.288411458333485
 41
1.1764705882352833
 50
0
  1
è¯ô_çDüf
  0
LINE
  8
_f-f_
  6
CONTINUOUS
 62
    7
 10
1751.8195457937627
 20
2700.4406032149996
 11
1751.8195457937627
 21
2699.7406032149997
  0
LINE
  8
_f-f_
  6
CONTINUOUS
 62
    7
 10
1751.8195457937627
 20
2700.4406032149996
 11
2054.019545793763
 21
2700.4406032149996
  0
LINE
  8
_f-f_
  6
CONTINUOUS
 62
    7
 10
2054.019545793763
 20
2700.4406032149996
 11
2054.019545793763
 21
2699.7406032149997
  0
CIRCLE
  8
_0-3_âh__âÇ
  6
CONTINUOUS
 62
    7
 10
1778.019545793763
 20
2655.7645862638865
 40
4
  0
CIRCLE
  8
_0-3_âh__âÇ
  6
CONTINUOUS
 62
    7
 10
2032.019545793763
 20
2655.7645862638865
 40
4
  0
LINE
  8
_0-3_âh__âÇ
  6
CONTINUOUS
 62
    7
 10
1778.019545793763
 20
2655.7645862638865
 11
2032.019545793763
 21
2655.7645862638865
  0
TEXT
  8
_0-3_âh__âÇ
 62
    7
 10
1878.5489575584688
 20
2655.7645862638865
 40
30.000000000000142
 41
1.1764705882352886
 50
0
  1
254
  0
LINE
  8
_f-f_
  6
CONTINUOUS
 62
    7
 10
2065.019545793763
 20
2708.940603215
 11
2065.019545793763
 21
2700.7406032149993
  0
LINE
  8
_f-f_
  6
CONTINUOUS
 62
    7
 10
2064.2195457937628
 20
2708.940603215
 11
2065.019545793763
 21
2708.940603215
  0
LINE
  8
_f-f_
  6
CONTINUOUS
 62
    7
 10
2064.2195457937628
 20
2700.7406032149993
 11
2064.2195457937628
 21
2708.940603215
  0
ARC
  8
_f-f_
  6
CONTINUOUS
 62
    7
 10
2063.2195457937628
 20
2700.7406032149993
 40
1.8000000000000003
 50
270
 51
0
  0
LINE
  8
_f-f_
  6
CONTINUOUS
 62
    7
 10
2033.019545793763
 20
2698.9406032149991
 11
2063.2195457937628
 21
2698.9406032149991
  0
LINE
  8
_f-f_
  6
CONTINUOUS
 62
    7
 10
2033.019545793763
 20
2699.7406032149997
 11
2033.019545793763
 21
2698.9406032149991
  0
ARC
  8
_f-f_
  6
CONTINUOUS
 62
    7
 10
2063.2195457937628
 20
2700.7406032149993
 40
1
 50
270
 51
0
  0
LINE
  8
_f-f_
  6
CONTINUOUS
 62
    7
 10
1745.0195457937627
 20
2708.940603215
 11
1745.8195457937629
 21
2708.940603215
  0
LINE
  8
_f-f_
  6
CONTINUOUS
 62
    7
 10
1745.8195457937629
 20
2700.7406032149993
 11
1745.8195457937629
 21
2708.940603215
  0
ARC
  8
_f-f_
  6
CONTINUOUS
 62
    7
 10
1746.8195457937627
 20
2700.7406032149993
 40
1.8000000000000003
 50
180
 51
270
  0
LINE
  8
_f-f_
  6
CONTINUOUS
 62
    7
 10
1745.0195457937627
 20
2708.940603215
 11
1745.0195457937627
 21
2700.7406032149993
  0
LINE
  8
_f-f_
  6
CONTINUOUS
 62
    7
 10
1746.8195457937627
 20
2698.9406032149991
 11
1777.019545793763
 21
2698.9406032149991
  0
LINE
  8
_f-f_
  6
CONTINUOUS
 62
    7
 10
1777.019545793763
 20
2699.7406032149997
 11
1777.019545793763
 21
2698.9406032149991
  0
ARC
  8
_f-f_
  6
CONTINUOUS
 62
    7
 10
1746.8195457937627
 20
2700.7406032149993
 40
1
 50
180
 51
270
  0
LINE
  8
_f-f_
  6
CONTINUOUS
 62
    7
 10
2063.2195457937628
 20
2699.7406032149997
 11
1746.8195457937627
 21
2699.7406032149997
  0
CIRCLE
  8
_0-3_âh__âÇ
  6
CONTINUOUS
 62
    7
 10
1745.0195457937627
 20
2612.5354266855084
 40
4
  0
LINE
  8
_0-3_âh__âÇ
  6
CONTINUOUS
 62
    7
 10
1745.0195457937627
 20
2686.1689186379017
 11
1745.0195457937627
 21
2612.5354266855084
  0
CIRCLE
  8
_0-3_âh__âÇ
  6
CONTINUOUS
 62
    7
 10
2065.019545793763
 20
2612.5354266855084
 40
4
  0
LINE
  8
_0-3_âh__âÇ
  6
CONTINUOUS
 62
    7
 10
1745.0195457937627
 20
2612.5354266855084
 11
2065.019545793763
 21
2612.5354266855084
  0
LINE
  8
_0-3_âh__âÇ
  6
CONTINUOUS
 62
    7
 10
2065.019545793763
 20
2686.1689186379017
 11
2065.019545793763
 21
2612.5354266855084
  0
TEXT
  8
_0-3_âh__âÇ
 62
    7
 10
1878.5489575584688
 20
2612.5354266855084
 40
30.000000000000142
 41
1.1764705882352895
 50
0
  1
320
  0
POINT
  8
_0-3_âh__âÇ
 62
    7
 10
1747.5195457937627
 20
2481.2583393726622
  0
LINE
  8
_0-3_âh__âÇ
  6
CONTINUOUS
 62
    7
 10
1753.0434585147782
 20
2487.0043393726619
 11
1781.8082643192067
 21
2525.0043393726623
  0
LINE
  8
_0-3_âh__âÇ
  6
CONTINUOUS
 62
    7
 10
1781.8082643192067
 20
2525.0043393726623
 11
1824.7899758688984
 21
2525.0043393726623
  0
TEXT
  8
_0-3_âh__âÇ
 62
    7
 10
1833.7899758688986
 20
2514.229977551408
 40
16.288411458333343
 41
1.1764705882352935
 50
0
  1
è¯ô_çDüf
  0
CIRCLE
  8
_0-3_âh__âÇ
  6
CONTINUOUS
 62
    7
 10
1778.019545793763
 20
2428.0823224215492
 40
4
  0
CIRCLE
  8
_0-3_âh__âÇ
  6
CONTINUOUS
 62
    7
 10
2032.019545793763
 20
2428.0823224215492
 40
4
  0
LINE
  8
_0-3_âh__âÇ
  6
CONTINUOUS
 62
    7
 10
1778.019545793763
 20
2428.0823224215492
 11
2032.019545793763
 21
2428.0823224215492
  0
TEXT
  8
_0-3_âh__âÇ
 62
    7
 10
1878.5489575584688
 20
2428.0823224215492
 40
30
 41
1.1764705882352942
 50
0
  1
254
  0
LINE
  8
_f-f_
  6
CONTINUOUS
 62
    7
 10
2065.019545793763
 20
2481.2583393726622
 11
2065.019545793763
 21
2473.058339372662
  0
LINE
  8
_f-f_
  6
CONTINUOUS
 62
    7
 10
2064.2195457937628
 20
2481.2583393726622
 11
2065.019545793763
 21
2481.2583393726622
  0
LINE
  8
_f-f_
  6
CONTINUOUS
 62
    7
 10
2064.2195457937628
 20
2473.058339372662
 11
2064.2195457937628
 21
2481.2583393726622
  0
ARC
  8
_f-f_
  6
CONTINUOUS
 62
    7
 10
2063.2195457937628
 20
2473.058339372662
 40
1.8000000000000003
 50
270
 51
0
  0
ARC
  8
_f-f_
  6
CONTINUOUS
 62
    7
 10
2063.2195457937628
 20
2473.058339372662
 40
1
 50
270
 51
0
  0
LINE
  8
_f-f_
  6
CONTINUOUS
 62
    7
 10
1745.0195457937627
 20
2481.2583393726622
 11
1745.8195457937629
 21
2481.2583393726622
  0
LINE
  8
_f-f_
  6
CONTINUOUS
 62
    7
 10
1745.8195457937629
 20
2473.058339372662
 11
1745.8195457937629
 21
2481.2583393726622
  0
ARC
  8
_f-f_
  6
CONTINUOUS
 62
    7
 10
1746.8195457937627
 20
2473.058339372662
 40
1.8000000000000003
 50
180
 51
270
  0
LINE
  8
_f-f_
  6
CONTINUOUS
 62
    7
 10
1745.0195457937627
 20
2481.2583393726622
 11
1745.0195457937627
 21
2473.058339372662
  0
ARC
  8
_f-f_
  6
CONTINUOUS
 62
    7
 10
1746.8195457937627
 20
2473.058339372662
 40
1
 50
180
 51
270
  0
LINE
  8
_f-f_
  6
CONTINUOUS
 62
    7
 10
1777.019545793763
 20
2472.058339372662
 11
1746.8195457937627
 21
2472.058339372662
  0
LINE
  8
_f-f_
  6
CONTINUOUS
 62
    7
 10
1777.019545793763
 20
2472.058339372662
 11
1777.019545793763
 21
2471.2583393726622
  0
LINE
  8
_f-f_
  6
CONTINUOUS
 62
    7
 10
2033.019545793763
 20
2472.058339372662
 11
2033.019545793763
 21
2471.2583393726622
  0
LINE
  8
_f-f_
  6
CONTINUOUS
 62
    7
 10
2063.2195457937628
 20
2472.058339372662
 11
2033.019545793763
 21
2472.058339372662
  0
LINE
  8
_f-f_
  6
CONTINUOUS
 62
    7
 10
1739.0195457937627
 20
2471.2583393726622
 11
2071.019545793763
 21
2471.2583393726622
  0
CIRCLE
  8
_0-3_âh__âÇ
  6
CONTINUOUS
 62
    7
 10
1739.0195457937627
 20
2384.853162843171
 40
4
  0
LINE
  8
_0-3_âh__âÇ
  6
CONTINUOUS
 62
    7
 10
1739.0195457937627
 20
2458.4866547955644
 11
1739.0195457937627
 21
2384.853162843171
  0
CIRCLE
  8
_0-3_âh__âÇ
  6
CONTINUOUS
 62
    7
 10
2071.019545793763
 20
2384.853162843171
 40
4
  0
LINE
  8
_0-3_âh__âÇ
  6
CONTINUOUS
 62
    7
 10
1739.0195457937627
 20
2384.853162843171
 11
2071.019545793763
 21
2384.853162843171
  0
LINE
  8
_0-3_âh__âÇ
  6
CONTINUOUS
 62
    7
 10
2071.019545793763
 20
2458.4866547955644
 11
2071.019545793763
 21
2384.853162843171
  0
LINE
  8
_0-3_âh__âÇ
  6
CONTINUOUS
 62
    7
 10
1778.019545793763
 20
2458.4866547955644
 11
1778.019545793763
 21
2428.0823224215492
  0
LINE
  8
_0-3_âh__âÇ
  6
CONTINUOUS
 62
    7
 10
2032.019545793763
 20
2458.4866547955644
 11
2032.019545793763
 21
2428.0823224215492
  0
LINE
  8
_0-3_âh__âÇ
  6
CONTINUOUS
 62
    7
 10
1778.019545793763
 20
2686.1689186379017
 11
1778.019545793763
 21
2655.7645862638865
  0
LINE
  8
_0-3_âh__âÇ
  6
CONTINUOUS
 62
    7
 10
2032.019545793763
 20
2686.1689186379017
 11
2032.019545793763
 21
2655.7645862638865
  0
TEXT
  8
_0-3_âh__âÇ
 62
    7
 10
810.93162857144102
 20
2198.5811111111125
 40
33.954861111111114
 41
1.1764705882352944
 50
0
  1
üméQünâïü[âtâxü[âX
  0
LINE
  8
_0-3_âh__âÇ
  6
CONTINUOUS
 62
    7
 10
775.93162857144102
 20
2267.4700000000016
 11
1184.931628571441
 21
2267.4700000000016
  0
LINE
  8
_0-3_âh__âÇ
  6
CONTINUOUS
 62
    7
 10
1184.931628571441
 20
2267.4700000000016
 11
1184.931628571441
 21
2193.0811111111125
  0
LINE
  8
_0-3_âh__âÇ
  6
CONTINUOUS
 62
    7
 10
1184.931628571441
 20
2193.0811111111125
 11
775.93162857144102
 21
2193.0811111111125
  0
LINE
  8
_0-3_âh__âÇ
  6
CONTINUOUS
 62
    7
 10
775.93162857144102
 20
2193.0811111111125
 11
775.93162857144102
 21
2267.4700000000016
  0
LINE
  8
_f-f_
  6
CONTINUOUS
 62
    7
 10
956.62476139670957
 20
2025.3640850496085
 11
956.62477247503159
 21
2042.0441906881265
  0
LINE
  8
_f-f_
  6
CONTINUOUS
 62
    7
 10
955.91356718918155
 20
2034.1776631307534
 11
955.91356139670449
 21
2042.0441881435336
  0
LINE
  8
_f-f_
  6
CONTINUOUS
 62
    7
 10
955.91356139670449
 20
2025.3640850496085
 11
955.91356482306935
 21
2034.4700000000016
  0
LINE
  8
_f-f_
  6
CONTINUOUS
 62
    7
 10
809.75662857143811
 20
1895.0112850496089
 11
920.25046225257734
 21
1895.0112850496089
  0
ARC
  8
_f-f_
  6
CONTINUOUS
 62
    7
 10
920.25046225257734
 20
1907.7112850496087
 40
12.699999999999818
 50
270
 51
349.0532309543791
  0
LINE
  8
_f-f_
  6
CONTINUOUS
 62
    7
 10
932.7193734578359
 20
1905.2995940753535
 11
955.88583074134272
 21
2025.0746821326979
  0
ARC
  8
_f-f_
  6
CONTINUOUS
 62
    7
 10
954.38956139670677
 20
2025.3640850496085
 40
1.5240000000009082
 50
349.05323095439155
 51
0.0000000000000031
  0
ARC
  8
_f-f_
  6
CONTINUOUS
 62
    7
 10
954.38956139670677
 20
2025.3640850496085
 40
2.2352000000009635
 50
349.05323095439132
 51
0.000000000000027
  0
LINE
  8
_f-f_
  6
CONTINUOUS
 62
    7
 10
933.41763248532857
 20
1905.1645393807958
 11
956.58408976883561
 21
2024.9396274381397
  0
ARC
  8
_f-f_
  6
CONTINUOUS
 62
    7
 10
920.25046225257734
 20
1907.7112850496087
 40
13.41120000000001
 50
270
 51
349.05323095438501
  0
LINE
  8
_f-f_
  6
CONTINUOUS
 62
    7
 10
809.75662857143811
 20
1894.3000850496087
 11
920.25046225257734
 21
1894.3000850496087
  0
LINE
  8
_f-f_
  6
CONTINUOUS
 62
    7
 10
959.72356139670921
 20
2046.7000850496088
 11
959.72356139670921
 21
2045.9719185212452
  0
ARC
  8
_f-f_
  6
CONTINUOUS
 62
    7
 10
960.66336139670943
 20
2042.0441881435336
 40
4.0385999999999065
 50
103.45634369373747
 51
180
  0
ARC
  8
_f-f_
  6
CONTINUOUS
 62
    7
 10
960.66336139670943
 20
2042.0441881435336
 40
4.7498000000000991
 50
101.41190174381451
 51
180
  0
LINE
  8
_0-3_âh__âÇ
  6
CONTINUOUS
 62
    7
 10
809.75662857143811
 20
1895.0112850496089
 11
809.75662857143811
 21
1894.3000850496087
  0
LINE
  8
_f-f_
  6
CONTINUOUS
 62
    7
 10
1221.238495747242
 20
2025.3640850496085
 11
1221.2384846689199
 21
2042.0441906881265
  0
LINE
  8
_f-f_
  6
CONTINUOUS
 62
    7
 10
1221.9496899547628
 20
2034.1776631307534
 11
1221.9496957472402
 21
2042.0441881435336
  0
LINE
  8
_f-f_
  6
CONTINUOUS
 62
    7
 10
1221.9496957472402
 20
2025.3640850496085
 11
1221.9496923208824
 21
2034.4700000000016
  0
LINE
  8
_f-f_
  6
CONTINUOUS
 62
    7
 10
1368.1066285714439
 20
1895.0112850496089
 11
1257.6127948913743
 21
1895.0112850496089
  0
ARC
  8
_f-f_
  6
CONTINUOUS
 62
    7
 10
1257.6127948913743
 20
1907.7112850496087
 40
12.699999999998841
 50
190.94676904562093
 51
270
  0
LINE
  8
_f-f_
  6
CONTINUOUS
 62
    7
 10
1245.1438836861159
 20
1905.2995940753535
 11
1221.9774264026162
 21
2025.0746821326979
  0
ARC
  8
_f-f_
  6
CONTINUOUS
 62
    7
 10
1223.4736957472451
 20
2025.3640850496085
 40
1.5240000000012515
 50
180
 51
190.94676904560842
  0
ARC
  8
_f-f_
  6
CONTINUOUS
 62
    7
 10
1223.4736957472451
 20
2025.3640850496085
 40
2.2352000000009866
 50
180
 51
190.94676904560868
  0
LINE
  8
_f-f_
  6
CONTINUOUS
 62
    7
 10
1244.4456246586158
 20
1905.1645393807958
 11
1221.279167375116
 21
2024.9396274381397
  0
ARC
  8
_f-f_
  6
CONTINUOUS
 62
    7
 10
1257.6127948913743
 20
1907.7112850496087
 40
13.411200000000509
 50
190.94676904561501
 51
270
  0
LINE
  8
_f-f_
  6
CONTINUOUS
 62
    7
 10
1368.1066285714439
 20
1894.3000850496087
 11
1257.6127948913743
 21
1894.3000850496087
  0
LINE
  8
_f-f_
  6
CONTINUOUS
 62
    7
 10
1218.1396957472425
 20
2046.7000850496088
 11
1218.1396957472425
 21
2045.9719185212452
  0
ARC
  8
_f-f_
  6
CONTINUOUS
 62
    7
 10
1217.1998957472422
 20
2042.0441881435336
 40
4.0385999999998603
 50
0
 51
76.543656306262505
  0
ARC
  8
_f-f_
  6
CONTINUOUS
 62
    7
 10
1217.1998957472422
 20
2042.0441881435336
 40
4.7497999999995955
 50
0
 51
78.588098256185503
  0
LINE
  8
_0-3_âh__âÇ
  6
CONTINUOUS
 62
    7
 10
1368.1066285714439
 20
1895.0112850496089
 11
1368.1066285714439
 21
1894.3000850496087
  0
POINT
  8
_0-3_âh__âÇ
 62
    7
 10
959.72356139670921
 20
2046.7000850496088
  0
LINE
  8
_0-3_âh__âÇ
  6
CONTINUOUS
 62
    7
 10
964.18511121732058
 20
2050.8939896025036
 11
992.94991702174934
 21
2088.8939896025036
  0
LINE
  8
_0-3_âh__âÇ
  6
CONTINUOUS
 62
    7
 10
992.94991702174934
 20
2088.8939896025036
 11
1035.931628571441
 21
2088.8939896025036
  0
TEXT
  8
_0-3_âh__âÇ
 62
    7
 10
1044.9316285714413
 20
2078.1196277812496
 40
16.288411458333272
 41
1.1764705882352964
 50
0
  1
è¯ô_çA
  0
LINE
  8
_0-3_âh__âÇ
  6
CONTINUOUS
 62
    7
 10
1387.0287729031659
 20
1894.3000850496087
 11
1432.414962575745
 21
1894.3000850496087
  0
LINE
  8
_0-3_âh__âÇ
  6
CONTINUOUS
 62
    7
 10
1387.0287729031659
 20
2046.7000850496088
 11
1432.414962575745
 21
2046.7000850496088
  0
CIRCLE
  8
_0-3_âh__âÇ
  6
CONTINUOUS
 62
    7
 10
1432.2349625757447
 20
1894.3000850496087
 40
4
  0
CIRCLE
  8
_0-3_âh__âÇ
  6
CONTINUOUS
 62
    7
 10
1432.2349625757447
 20
2046.7000850496088
 40
4
  0
LINE
  8
_0-3_âh__âÇ
  6
CONTINUOUS
 62
    7
 10
809.75662857143811
 20
1864.5823368458346
 11
809.75662857143811
 21
1817.9018601673251
  0
LINE
  8
_0-3_âh__âÇ
  6
CONTINUOUS
 62
    7
 10
1368.1691285714439
 20
1864.5823368458346
 11
1368.1691285714439
 21
1817.9018601673251
  0
CIRCLE
  8
_0-3_âh__âÇ
  6
CONTINUOUS
 62
    7
 10
809.75662857143811
 20
1818.081860167325
 40
4
  0
CIRCLE
  8
_0-3_âh__âÇ
  6
CONTINUOUS
 62
    7
 10
1368.1691285714439
 20
1818.081860167325
 40
4
  0
LINE
  8
_0-3_âh__âÇ
  6
CONTINUOUS
 62
    7
 10
931.32002201673072
 20
1889.9763993487022
 11
931.32002201673072
 21
1859.5596236199062
  0
LINE
  8
_0-3_âh__âÇ
  6
CONTINUOUS
 62
    7
 10
1246.5432351261441
 20
1893.7846644495758
 11
1246.5432351261441
 21
1859.5596236199062
  0
CIRCLE
  8
_0-3_âh__âÇ
  6
CONTINUOUS
 62
    7
 10
931.32002201673072
 20
1859.7396236199061
 40
4
  0
CIRCLE
  8
_0-3_âh__âÇ
  6
CONTINUOUS
 62
    7
 10
1246.5432351261441
 20
1859.7396236199061
 40
4
  0
LINE
  8
_0-3_âh__âÇ
  6
CONTINUOUS
 62
    7
 10
1432.2349625757447
 20
1894.3000850496087
 11
1432.2349625757447
 21
2046.7000850496088
  0
TEXT
  8
_0-3_âh__âÇ
 62
    7
 10
1432.1449625757484
 20
1944.0294968143144
 40
30
 41
1.1764705882352933
 50
90
  1
152
  0
LINE
  8
_0-3_âh__âÇ
  6
CONTINUOUS
 62
    7
 10
809.75662857143811
 20
1818.081860167325
 11
1368.1691285714439
 21
1818.081860167325
  0
TEXT
  8
_0-3_âh__âÇ
 62
    7
 10
1044.8452315126158
 20
1818.0818601673252
 40
29.999999999999929
 41
1.176470588235297
 50
0
  1
558.4
  0
LINE
  8
_0-3_âh__âÇ
  6
CONTINUOUS
 62
    7
 10
931.32002201673072
 20
1859.7396236199061
 11
1246.5432351261441
 21
1859.7396236199061
  0
TEXT
  8
_0-3_âh__âÇ
 62
    7
 10
1044.8139815126158
 20
1859.8296236199062
 40
30.000000000000071
 41
1.1764705882352915
 50
0
  1
315.2
  0
LINE
  8
_0-3_âh__âÇ
  6
CONTINUOUS
 62
    7
 10
775.93162857144102
 20
2267.4700000000016
 11
2267.5328048755405
 21
2267.4700000000016
  0
LINE
  8
_0-3_âh__âÇ
  6
CONTINUOUS
 62
    7
 10
775.93162857144102
 20
1757.4700000000016
 11
775.93162857144102
 21
2267.4700000000016
  0
LINE
  8
_0-3_âh__âÇ
  6
CONTINUOUS
 62
    7
 10
2267.5328048755405
 20
1757.4700000000016
 11
775.93162857144102
 21
1757.4700000000016
  0
TEXT
  8
_0-3_âh__âÇ
 62
    7
 10
116.81951851933121
 20
2721.0811111111125
 40
30
 41
1
 50
0
  1
üß160DS âXâNâGâAâLâbâgü@É╗òiÉ}û╩üÔ
  0
TEXT
  8
_f-f_
 62
    7
 10
1790.0425237349393
 20
2560.3191180917584
 40
24.432617187499943
 41
1.1764705882352975
 50
0
  1
âXâNâGâAâIâvâeâB
  0
TEXT
  8
_f-f_
 62
    7
 10
1732.5540127055274
 20
2332.636854249421
 40
24.432617187499943
 41
1.1764705882352975
 50
0
  1
âXâNâGâAâWâââXâgâtâìâXâg
  0
LINE
  8
_f-f_
  6
CONTINUOUS
 62
    7
 10
1778.3969117137626
 20
2592.5354266855084
 11
1778.3969117137626
 21
2552.5354266855084
  0
LINE
  8
_f-f_
  6
CONTINUOUS
 62
    7
 10
1778.3969117137626
 20
2592.5354266855084
 11
2031.6421798737629
 21
2592.5354266855084
  0
LINE
  8
_f-f_
  6
CONTINUOUS
 62
    7
 10
1778.3969117137626
 20
2552.5354266855084
 11
2031.6421798737629
 21
2552.5354266855084
  0
LINE
  8
_f-f_
  6
CONTINUOUS
 62
    7
 10
2031.6421798737629
 20
2592.5354266855084
 11
2031.6421798737629
 21
2552.5354266855084
  0
LINE
  8
_f-f_
  6
CONTINUOUS
 62
    7
 10
1718.126664983763
 20
2364.8531628431706
 11
1718.126664983763
 21
2324.853162843171
  0
LINE
  8
_f-f_
  6
CONTINUOUS
 62
    7
 10
1718.126664983763
 20
2364.8531628431706
 11
2091.9124266037629
 21
2364.8531628431706
  0
LINE
  8
_f-f_
  6
CONTINUOUS
 62
    7
 10
2091.9124266037629
 20
2364.8531628431706
 11
2091.9124266037629
 21
2324.853162843171
  0
LINE
  8
_f-f_
  6
CONTINUOUS
 62
    7
 10
1718.126664983763
 20
2324.853162843171
 11
2091.9124266037629
 21
2324.853162843171
  0
LINE
  8
_0-3_âh__âÇ
  6
DASHED1
 62
    7
 10
1028.7408720504247
 20
2470.4700000000012
 11
1287.1570064018817
 21
2470.4700000000012
  0
LINE
  8
_0-3_âh__âÇ
  6
DASHED1
 62
    7
 10
959.72356139670921
 20
2046.7000850496088
 11
1218.1396957461729
 21
2046.7000850496088
  0
LINE
  8
_0-3_âh__âÇ
  6
DASHED1
 62
    7
 10
1708.5327362691755
 20
2075.0112850496089
 11
1966.53280487554
 21
2075.0112850496089
  0
TEXT
  8
_0-3_âh__âÇ
 62
    7
 10
945.74555601910356
 20
1502.3135529844353
 40
30
 41
1.176470588235295
 50
0
  1
â│245
  0
TEXT
  8
_0-3_âh__âÇ
 62
    7
 10
1333.9690489478039
 20
1674.6990968497707
 40
29.999999999999964
 41
1.1764705882352933
 50
0
  1
â│245
  0
LINE
  8
_0-3_âh__âÇ
  6
DASHED1
 62
    7
 10
867.36320307792653
 20
1421.470020899812
 11
1112.3632030779265
 21
1421.470020899812
  0
LINE
  8
_0-3_âh__âÇ
  6
DASHED1
 62
    7
 10
1255.5866960066271
 20
1609.4700000000016
 11
1500.5866960066271
 21
1609.4700000000016
  0
LINE
  8
_0-3_âh__âÇ
  6
DASHED1
 62
    7
 10
867.36320307792653
 20
1071.470020899812
 11
1112.3632030779265
 21
1071.4699941982599
  0
LINE
  8
_0-3_âh__âÇ
  6
DASHED1
 62
    7
 10
1255.5866960066271
 20
1059.4700000000016
 11
1500.5866960066271
 21
1059.4700000000016
  0
LINE
  8
_0-3_âh__âÇ
  6
CONTINUOUS
 62
    7
 10
142.39213223721151
 20
912.49238574050401
 11
2007.3921322372116
 21
912.49238574050401
  0
LINE
  8
_0-3_âh__âÇ
  6
CONTINUOUS
 62
    7
 10
2007.3921322372116
 20
912.49238574050401
 11
2007.3921322372116
 21
262.49238574050395
  0
LINE
  8
_0-3_âh__âÇ
  6
CONTINUOUS
 62
    7
 10
2007.3921322372116
 20
262.49238574050395
 11
142.39213223721151
 21
262.49238574050395
  0
LINE
  8
_0-3_âh__âÇ
  6
CONTINUOUS
 62
    7
 10
142.39213223721151
 20
262.49238574050395
 11
142.39213223721151
 21
912.49238574050401
  0
TEXT
  8
_0-3_âh__âÇ
 62
    7
 10
162.39213223721151
 20
847.38255304297513
 40
33.954861111111043
 41
1.1764705882352964
 50
0
  1
üméRünâgâbâvâAâôâOâïâ`âàü[âu
  0
LINE
  8
_0-3_âh__âÇ
  6
CONTINUOUS
 62
    7
 10
142.39213223721151
 20
912.49238574050401
 11
985.3921322372114
 21
912.49238574050401
  0
LINE
  8
_0-3_âh__âÇ
  6
CONTINUOUS
 62
    7
 10
985.3921322372114
 20
912.49238574050401
 11
985.3921322372114
 21
835.49238574050378
  0
LINE
  8
_0-3_âh__âÇ
  6
CONTINUOUS
 62
    7
 10
985.3921322372114
 20
835.49238574050378
 11
142.39213223721151
 21
835.49238574050378
  0
LINE
  8
_0-3_âh__âÇ
  6
CONTINUOUS
 62
    7
 10
142.39213223721151
 20
835.49238574050378
 11
142.39213223721151
 21
912.49238574050401
  0
TEXT
  8
_0-3_âh__âÇ
 62
    7
 10
337.73935445943039
 20
306.85349685161469
 40
27.147352430555571
 41
1.1764705882352926
 50
0
  1
èpôxéOüïé╠ÅÛìç
  0
TEXT
  8
_0-3_âh__âÇ
 62
    7
 10
963.91991001499252
 20
297.21460796272595
 40
27.147352430555571
 41
1.1764705882352939
 50
0
  1
èpôxéPéTüïé╠ÅÛìç
  0
TEXT
  8
_0-3_âh__âÇ
 62
    7
 10
1688.8312864742036
 20
297.21460796272595
 40
27.147352430555571
 41
1.1764705882352937
 50
0
  1
èpôxéRéOüïé╠ÅÛìç
  0
LINE
  8
_0-3_âh__âÇ
  6
CONTINUOUS
 62
    7
 10
289.24574055852275
 20
534.08299614652663
 11
614.31794698413398
 21
621.52804475160622
  0
LINE
  8
_0-3_âh__âÇ
  6
CONTINUOUS
 62
    7
 10
614.31794698413398
 20
621.52804475160622
 11
622.63050420329796
 21
590.62656594430541
  0
LINE
  8
_0-3_âh__âÇ
  6
CONTINUOUS
 62
    7
 10
622.63050420329796
 20
590.62656594430541
 11
297.55829777768639
 21
503.18151733922519
  0
LINE
  8
_0-3_âh__âÇ
  6
CONTINUOUS
 62
    7
 10
297.55829777768639
 20
503.18151733922519
 11
289.24574055852275
 21
534.08299614652663
  0
LINE
  8
_f-f_
  6
CONTINUOUS
 62
    7
 10
326.49335592441616
 20
397.49238574050378
 11
571.49335592441616
 21
397.49238574050378
  0
LINE
  8
_f-f_
  6
CONTINUOUS
 62
    7
 10
571.49335592441616
 20
397.49238574050378
 11
571.49335592441616
 21
694.95236058003559
  0
LINE
  8
_f-f_
  6
CONTINUOUS
 62
    7
 10
326.49335592441616
 20
397.49238574050378
 11
326.49335592441616
 21
694.95236058003559
  0
LINE
  8
_f-f_
  6
CONTINUOUS
 62
    7
 10
571.11236303501187
 20
697.49238588597109
 11
571.49335592441616
 21
697.49238581558814
  0
LINE
  8
_f-f_
  6
CONTINUOUS
 62
    7
 10
326.49335592441616
 20
697.49238574050378
 11
571.49335592441616
 21
697.49238574050378
  0
LINE
  8
_f-f_
  6
CONTINUOUS
 62
    7
 10
571.49335592441616
 20
549.58240021209713
 11
327.18301443280467
 21
484.09038774175372
  0
LINE
  8
_f-f_
  6
CONTINUOUS
 62
    7
 10
571.49335592441616
 20
556.58267525935253
 11
326.37960506708595
 21
490.87529369788825
  0
LINE
  8
_f-f_
  6
CONTINUOUS
 62
    7
 10
571.49335592441616
 20
553.09238581558839
 11
326.78017950298795
 21
487.49238581558802
  0
LINE
  8
_0-3_âh__âÇ
  6
CONTINUOUS
 62
    7
 10
313.07722157387616
 20
694.95236058003559
 11
313.07722157387616
 21
663.65353253943977
  0
LINE
  8
_0-3_âh__âÇ
  6
CONTINUOUS
 62
    7
 10
313.07722157387616
 20
663.65353253943977
 11
297.52365662457294
 21
663.65353253943977
  0
LINE
  8
_0-3_âh__âÇ
  6
CONTINUOUS
 62
    7
 10
297.52365662457294
 20
663.65353253943977
 11
297.52365662457294
 21
677.65353253943988
  0
LINE
  8
_0-3_âh__âÇ
  6
CONTINUOUS
 62
    7
 10
297.52365662457294
 20
677.65353253943988
 11
305.03967098016403
 21
677.65353253943988
  0
LINE
  8
_0-3_âh__âÇ
  6
CONTINUOUS
 62
    7
 10
305.03967098016403
 20
677.65353253943988
 11
305.03967098016403
 21
666.19355777499231
  0
LINE
  8
_0-3_âh__âÇ
  6
CONTINUOUS
 62
    7
 10
305.03967098016403
 20
666.19355777499231
 11
310.57722157387587
 21
666.19355777499231
  0
LINE
  8
_0-3_âh__âÇ
  6
CONTINUOUS
 62
    7
 10
310.57722157387587
 20
666.19355777499231
 11
310.57722157387587
 21
697.49238581558814
  0
LINE
  8
_0-3_âh__âÇ
  6
CONTINUOUS
 62
    7
 10
310.57722157387587
 20
697.49238581558814
 11
329.74455977028981
 21
697.49238581558814
  0
LINE
  8
_0-3_âh__âÇ
  6
CONTINUOUS
 62
    7
 10
329.74455977028981
 20
697.49238581558814
 11
329.74455977028981
 21
668.86826482308027
  0
LINE
  8
_0-3_âh__âÇ
  6
CONTINUOUS
 62
    7
 10
329.74455977028981
 20
668.86826482308027
 11
326.49335592441616
 21
668.86826482308027
  0
LINE
  8
_0-3_âh__âÇ
  6
CONTINUOUS
 62
    7
 10
326.49335592441616
 20
668.86826482308027
 11
326.49335592441616
 21
694.95236058003559
  0
LINE
  8
_0-3_âh__âÇ
  6
CONTINUOUS
 62
    7
 10
326.49335592441616
 20
694.95236058003559
 11
313.07722157387616
 21
694.95236058003559
  0
LINE
  8
_0-3_âh__âÇ
  6
CONTINUOUS
 62
    7
 10
584.90949027494912
 20
694.95236058003559
 11
584.90949027494912
 21
663.65353253943977
  0
LINE
  8
_0-3_âh__âÇ
  6
CONTINUOUS
 62
    7
 10
584.90949027494912
 20
663.65353253943977
 11
600.46305522425223
 21
663.65353253943977
  0
LINE
  8
_0-3_âh__âÇ
  6
CONTINUOUS
 62
    7
 10
600.46305522425223
 20
663.65353253943977
 11
600.46305522425223
 21
677.65353253943988
  0
LINE
  8
_0-3_âh__âÇ
  6
CONTINUOUS
 62
    7
 10
600.46305522425223
 20
677.65353253943988
 11
592.94704086865386
 21
677.65353253943988
  0
LINE
  8
_0-3_âh__âÇ
  6
CONTINUOUS
 62
    7
 10
592.94704086865386
 20
677.65353253943988
 11
592.94704086865386
 21
666.19355777499231
  0
LINE
  8
_0-3_âh__âÇ
  6
CONTINUOUS
 62
    7
 10
592.94704086865386
 20
666.19355777499231
 11
587.40949027494935
 21
666.19355777499231
  0
LINE
  8
_0-3_âh__âÇ
  6
CONTINUOUS
 62
    7
 10
587.40949027494935
 20
666.19355777499231
 11
587.40949027494935
 21
697.49238581558814
  0
LINE
  8
_0-3_âh__âÇ
  6
CONTINUOUS
 62
    7
 10
587.40949027494935
 20
697.49238581558814
 11
568.24215207853536
 21
697.49238581558814
  0
LINE
  8
_0-3_âh__âÇ
  6
CONTINUOUS
 62
    7
 10
568.24215207853536
 20
697.49238581558814
 11
568.24215207853536
 21
668.86826482308027
  0
LINE
  8
_0-3_âh__âÇ
  6
CONTINUOUS
 62
    7
 10
568.24215207853536
 20
668.86826482308027
 11
571.49335592441616
 21
668.86826482308027
  0
LINE
  8
_0-3_âh__âÇ
  6
CONTINUOUS
 62
    7
 10
571.49335592441616
 20
668.86826482308027
 11
571.49335592441616
 21
694.95236058003559
  0
LINE
  8
_0-3_âh__âÇ
  6
CONTINUOUS
 62
    7
 10
571.49335592441616
 20
694.95236058003559
 11
584.90949027494912
 21
694.95236058003559
  0
POINT
  8
_0-3_âh__âÇ
 62
    7
 10
310.57722157387587
 20
697.49238581558814
  0
POINT
  8
_0-3_âh__âÇ
 62
    7
 10
319.78528874914588
 20
694.95236058003559
  0
POINT
  8
_0-3_âh__âÇ
 62
    7
 10
326.49335592441616
 20
447.49238574050378
  0
LINE
  8
_f-f_
  6
CONTINUOUS
 62
    7
 10
976.37908014365507
 20
407.49238559503652
 11
1221.3790801436551
 21
407.49238559503652
  0
LINE
  8
_f-f_
  6
CONTINUOUS
 62
    7
 10
1221.3790801436551
 20
407.49238559503652
 11
1221.3790801436551
 21
520.29238559503665
  0
LINE
  8
_f-f_
  6
CONTINUOUS
 62
    7
 10
976.37908014365507
 20
488.03752363567128
 11
931.01275985805091
 21
657.34693562108305
  0
LINE
  8
_f-f_
  6
CONTINUOUS
 62
    7
 10
976.37908014365507
 20
407.49238559503652
 11
976.37908014365507
 21
488.03752363567128
  0
LINE
  8
_f-f_
  6
CONTINUOUS
 62
    7
 10
1221.3790801436551
 20
520.29238559503665
 11
1171.0380956623774
 21
708.16749707914732
  0
LINE
  8
_f-f_
  6
CONTINUOUS
 62
    7
 10
930.72336382259493
 20
659.89901981100286
 11
930.35535296933801
 21
659.80041152704325
  0
LINE
  8
_f-f_
  6
CONTINUOUS
 62
    7
 10
1167.0071804040197
 20
723.21107760006703
 11
930.35535298877198
 21
659.80041145451696
  0
LINE
  8
_f-f_
  6
CONTINUOUS
 62
    7
 10
1220.9205463255637
 20
516.8124796086081
 11
976.37908014365507
 21
484.61798477169668
  0
LINE
  8
_f-f_
  6
CONTINUOUS
 62
    7
 10
975.49900473946013
 20
491.32200975333672
 11
1220.0430439676054
 21
523.51684333821322
  0
LINE
  8
_f-f_
  6
CONTINUOUS
 62
    7
 10
976.37908014365507
 20
488.03752363565036
 11
1221.3790801436551
 21
520.29238559503665
  0
POINT
  8
_0-3_âh__âÇ
 62
    7
 10
1167.0071804040197
 20
723.21107760006703
  0
LINE
  8
_0-3_âh__âÇ
  6
CONTINUOUS
 62
    7
 10
918.0537692071664
 20
653.87458454478042
 11
926.15450198622398
 21
623.64223820584948
  0
LINE
  8
_0-3_âh__âÇ
  6
CONTINUOUS
 62
    7
 10
926.15450198622398
 20
623.64223820584948
 11
911.13091190986574
 21
619.61667938132678
  0
LINE
  8
_0-3_âh__âÇ
  6
CONTINUOUS
 62
    7
 10
911.13091190986574
 20
619.61667938132678
 11
907.5074452816624
 21
633.13964095024085
  0
LINE
  8
_0-3_âh__âÇ
  6
CONTINUOUS
 62
    7
 10
907.5074452816624
 20
633.13964095024085
 11
914.76735765895842
 21
635.08492860699471
  0
LINE
  8
_0-3_âh__âÇ
  6
CONTINUOUS
 62
    7
 10
914.76735765895842
 20
635.08492860699471
 11
917.73341738174338
 21
624.0154430126845
  0
LINE
  8
_0-3_âh__âÇ
  6
CONTINUOUS
 62
    7
 10
917.73341738174338
 20
624.0154430126845
 11
923.08228051492893
 21
625.4486665682748
  0
LINE
  8
_0-3_âh__âÇ
  6
CONTINUOUS
 62
    7
 10
923.08228051492893
 20
625.4486665682748
 11
914.98154773587146
 21
655.68101290720517
  0
LINE
  8
_0-3_âh__âÇ
  6
CONTINUOUS
 62
    7
 10
914.98154773587146
 20
655.68101290720517
 11
933.49577472219221
 21
660.64188507192603
  0
LINE
  8
_0-3_âh__âÇ
  6
CONTINUOUS
 62
    7
 10
933.49577472219221
 20
660.64188507192603
 11
940.90424237774982
 21
632.99310734866651
  0
LINE
  8
_0-3_âh__âÇ
  6
CONTINUOUS
 62
    7
 10
940.90424237774982
 20
632.99310734866651
 11
937.76382061628806
 21
632.15163387459506
  0
LINE
  8
_0-3_âh__âÇ
  6
CONTINUOUS
 62
    7
 10
937.76382061628806
 20
632.15163387459506
 11
931.01275986614178
 21
657.34693562325128
  0
LINE
  8
_0-3_âh__âÇ
  6
CONTINUOUS
 62
    7
 10
931.01275986614178
 20
657.34693562325128
 11
918.0537692071664
 21
653.87458454478042
  0
LINE
  8
_0-3_âh__âÇ
  6
CONTINUOUS
 62
    7
 10
1180.6235779811175
 20
724.22995269519788
 11
1188.7243107601826
 21
693.99760635626762
  0
LINE
  8
_0-3_âh__âÇ
  6
CONTINUOUS
 62
    7
 10
1188.7243107601826
 20
693.99760635626762
 11
1203.7479008365406
 21
698.02316518079033
  0
LINE
  8
_0-3_âh__âÇ
  6
CONTINUOUS
 62
    7
 10
1203.7479008365406
 20
698.02316518079033
 11
1200.1244342083371
 21
711.5461267497044
  0
LINE
  8
_0-3_âh__âÇ
  6
CONTINUOUS
 62
    7
 10
1200.1244342083371
 20
711.5461267497044
 11
1192.864521831048
 21
709.60083909294963
  0
LINE
  8
_0-3_âh__âÇ
  6
CONTINUOUS
 62
    7
 10
1192.864521831048
 20
709.60083909294963
 11
1195.8305815538258
 21
698.53135349863942
  0
LINE
  8
_0-3_âh__âÇ
  6
CONTINUOUS
 62
    7
 10
1195.8305815538258
 20
698.53135349863942
 11
1190.4817184206402
 21
697.09812994304912
  0
LINE
  8
_0-3_âh__âÇ
  6
CONTINUOUS
 62
    7
 10
1190.4817184206402
 20
697.09812994304912
 11
1182.3809856415826
 21
727.33047628197994
  0
LINE
  8
_0-3_âh__âÇ
  6
CONTINUOUS
 62
    7
 10
1182.3809856415826
 20
727.33047628197994
 11
1163.8667586552617
 21
722.36960411725909
  0
LINE
  8
_0-3_âh__âÇ
  6
CONTINUOUS
 62
    7
 10
1163.8667586552617
 20
722.36960411725909
 11
1171.2752263108266
 21
694.72082639399923
  0
LINE
  8
_0-3_âh__âÇ
  6
CONTINUOUS
 62
    7
 10
1171.2752263108266
 20
694.72082639399923
 11
1174.4156480722884
 21
695.56229986807068
  0
LINE
  8
_0-3_âh__âÇ
  6
CONTINUOUS
 62
    7
 10
1174.4156480722884
 20
695.56229986807068
 11
1167.6645873221421
 21
720.7576016167269
  0
LINE
  8
_0-3_âh__âÇ
  6
CONTINUOUS
 62
    7
 10
1167.6645873221421
 20
720.7576016167269
 11
1180.6235779811175
 21
724.22995269519788
  0
POINT
  8
_0-3_âh__âÇ
 62
    7
 10
914.98154773587146
 20
655.68101290720517
  0
POINT
  8
_0-3_âh__âÇ
 62
    7
 10
924.53326453665045
 20
655.61076008401619
  0
POINT
  8
_0-3_âh__âÇ
 62
    7
 10
976.37908014365507
 20
457.49238559503652
  0
LINE
  8
_f-f_
  6
CONTINUOUS
 62
    7
 10
1815.3130413230751
 20
735.00083426905621
 11
1603.1641930547628
 21
612.45343046780272
  0
POINT
  8
_0-3_âh__âÇ
 62
    7
 10
1815.3130413230751
 20
735.00083426905621
  0
LINE
  8
_0-3_âh__âÇ
  6
CONTINUOUS
 62
    7
 10
1828.2011930277367
 20
739.5123051295451
 11
1843.8566628981202
 21
712.4102221864905
  0
LINE
  8
_0-3_âh__âÇ
  6
CONTINUOUS
 62
    7
 10
1843.8566628981202
 20
712.4102221864905
 11
1857.324707349158
 21
720.19001404083974
  0
LINE
  8
_0-3_âh__âÇ
  6
CONTINUOUS
 62
    7
 10
1857.324707349158
 20
720.19001404083974
 11
1850.3219985607936
 21
732.31280537061878
  0
LINE
  8
_0-3_âh__âÇ
  6
CONTINUOUS
 62
    7
 10
1850.3219985607936
 20
732.31280537061878
 11
1843.813779013333
 21
728.55334395766033
  0
LINE
  8
_0-3_âh__âÇ
  6
CONTINUOUS
 62
    7
 10
1843.813779013333
 20
728.55334395766033
 11
1849.545983727432
 21
718.62999519238031
  0
LINE
  8
_0-3_âh__âÇ
  6
CONTINUOUS
 62
    7
 10
1849.545983727432
 20
718.62999519238031
 11
1844.7509429898926
 21
715.86014846319631
  0
LINE
  8
_0-3_âh__âÇ
  6
CONTINUOUS
 62
    7
 10
1844.7509429898926
 20
715.86014846319631
 11
1829.0954731195011
 21
742.96223140625125
  0
LINE
  8
_0-3_âh__âÇ
  6
CONTINUOUS
 62
    7
 10
1829.0954731195011
 20
742.96223140625125
 11
1812.4982130264762
 21
733.3748537178526
  0
LINE
  8
_0-3_âh__âÇ
  6
CONTINUOUS
 62
    7
 10
1812.4982130264762
 20
733.3748537178526
 11
1826.8158118574354
 21
708.58883616138792
  0
LINE
  8
_0-3_âh__âÇ
  6
CONTINUOUS
 62
    7
 10
1826.8158118574354
 20
708.58883616138792
 11
1829.6310736998782
 21
710.21506714312181
  0
LINE
  8
_0-3_âh__âÇ
  6
CONTINUOUS
 62
    7
 10
1829.6310736998782
 20
710.21506714312181
 11
1816.583978943177
 21
732.80164213508851
  0
LINE
  8
_0-3_âh__âÇ
  6
CONTINUOUS
 62
    7
 10
1816.583978943177
 20
732.80164213508851
 11
1828.2011930277367
 21
739.5123051295451
  0
LINE
  8
_f-f_
  6
CONTINUOUS
 62
    7
 10
1675.3921322372114
 20
407.49238559503652
 11
1920.3921322372114
 21
407.49238559503652
  0
LINE
  8
_f-f_
  6
CONTINUOUS
 62
    7
 10
1920.3921322372114
 20
407.49238559503652
 11
1920.3921322372114
 21
553.09238559503683
  0
LINE
  8
_f-f_
  6
CONTINUOUS
 62
    7
 10
1675.3921322372114
 20
487.41549710447373
 11
1604.4346971290577
 21
610.25398790336476
  0
LINE
  8
_f-f_
  6
CONTINUOUS
 62
    7
 10
1675.3921322372114
 20
407.49238559503652
 11
1675.3921322372114
 21
487.41549710447458
  0
LINE
  8
_f-f_
  6
CONTINUOUS
 62
    7
 10
1920.3921322372114
 20
553.09238559503683
 11
1829.6306401574038
 21
710.21481670808555
  0
LINE
  8
_f-f_
  6
CONTINUOUS
 62
    7
 10
1603.4940999317403
 20
612.64400075484002
 11
1603.1641930172118
 21
612.45343053281977
  0
LINE
  8
_f-f_
  6
CONTINUOUS
 62
    7
 10
1920.3921322372114
 20
549.58239999154569
 11
1675.3921322372114
 21
483.90551150098332
  0
LINE
  8
_f-f_
  6
CONTINUOUS
 62
    7
 10
1673.6463121970153
 20
490.43778643352567
 11
1918.6463121970153
 21
556.11467492408701
  0
LINE
  8
_f-f_
  6
CONTINUOUS
 62
    7
 10
1675.3921322372114
 20
487.41549710447373
 11
1920.3921322372114
 21
553.09238559503683
  0
LINE
  8
_0-3_âh__âÇ
  6
CONTINUOUS
 62
    7
 10
1592.8179165874897
 20
603.54357534424457
 11
1608.4733864578809
 21
576.44149240118986
  0
LINE
  8
_0-3_âh__âÇ
  6
CONTINUOUS
 62
    7
 10
1608.4733864578809
 20
576.44149240118986
 11
1595.0053420068361
 21
568.66170054684062
  0
LINE
  8
_0-3_âh__âÇ
  6
CONTINUOUS
 62
    7
 10
1595.0053420068361
 20
568.66170054684062
 11
1588.0026332184711
 21
580.78449187661954
  0
LINE
  8
_0-3_âh__âÇ
  6
CONTINUOUS
 62
    7
 10
1588.0026332184711
 20
580.78449187661954
 11
1594.510852765939
 21
584.54395328957617
  0
LINE
  8
_0-3_âh__âÇ
  6
CONTINUOUS
 62
    7
 10
1594.510852765939
 20
584.54395328957617
 11
1600.243057480038
 21
574.62060452429625
  0
LINE
  8
_0-3_âh__âÇ
  6
CONTINUOUS
 62
    7
 10
1600.243057480038
 20
574.62060452429625
 11
1605.0380982175848
 21
577.39045125348014
  0
LINE
  8
_0-3_âh__âÇ
  6
CONTINUOUS
 62
    7
 10
1605.0380982175848
 20
577.39045125348014
 11
1589.3826283471933
 21
604.49253419653462
  0
LINE
  8
_0-3_âh__âÇ
  6
CONTINUOUS
 62
    7
 10
1589.3826283471933
 20
604.49253419653462
 11
1605.9798884402262
 21
614.07991188493281
  0
LINE
  8
_0-3_âh__âÇ
  6
CONTINUOUS
 62
    7
 10
1605.9798884402262
 20
614.07991188493281
 11
1620.2974872711854
 21
589.29389432846756
  0
LINE
  8
_0-3_âh__âÇ
  6
CONTINUOUS
 62
    7
 10
1620.2974872711854
 20
589.29389432846756
 11
1617.4822254287501
 21
587.66766334673412
  0
LINE
  8
_0-3_âh__âÇ
  6
CONTINUOUS
 62
    7
 10
1617.4822254287501
 20
587.66766334673412
 11
1604.4351306720489
 21
610.25423833870093
  0
LINE
  8
_0-3_âh__âÇ
  6
CONTINUOUS
 62
    7
 10
1604.4351306720489
 20
610.25423833870093
 11
1592.8179165874897
 21
603.54357534424457
  0
POINT
  8
_0-3_âh__âÇ
 62
    7
 10
1589.3826283471933
 20
604.49253419653462
  0
POINT
  8
_0-3_âh__âÇ
 62
    7
 10
1598.6265236297691
 20
606.89890684147269
  0
POINT
  8
_0-3_âh__âÇ
 62
    7
 10
1675.3921322372114
 20
457.49238559503652
  0
LINE
  8
_0-3_âh__âÇ
  6
CONTINUOUS
 62
    7
 10
315.13647065794061
 20
701.49238574050378
 11
343.90127646236209
 21
739.49238574050378
  0
LINE
  8
_0-3_âh__âÇ
  6
CONTINUOUS
 62
    7
 10
343.90127646236209
 20
739.49238574050378
 11
386.88298801206088
 21
739.49238574050378
  0
TEXT
  8
_0-3_âh__âÇ
 62
    7
 10
395.88298801206093
 20
728.71802391925007
 40
16.288411458333343
 41
1.1764705882352913
 50
0
  1
è¯ô_ç@üf
  0
LINE
  8
_0-3_âh__âÇ
  6
CONTINUOUS
 62
    7
 10
319.82196341940266
 20
690.20342348323823
 11
335.41042068751977
 21
663.20342348323823
  0
LINE
  8
_0-3_âh__âÇ
  6
CONTINUOUS
 62
    7
 10
335.41042068751977
 20
663.20342348323823
 11
402.39213223721123
 21
663.20342348323823
  0
TEXT
  8
_0-3_âh__âÇ
 62
    7
 10
405.39213223721134
 20
652.42906166198418
 40
16.288411458333343
 41
1.1764705882352955
 50
0
  1
è¯ô_çAüf
  0
LINE
  8
_0-3_âh__âÇ
  6
CONTINUOUS
 62
    7
 10
329.07196341940278
 20
445.49238574050389
 11
344.66042068751989
 21
418.49238574050378
  0
LINE
  8
_0-3_âh__âÇ
  6
CONTINUOUS
 62
    7
 10
344.66042068751989
 20
418.49238574050378
 11
411.64213223721134
 21
418.49238574050378
  0
TEXT
  8
_0-3_âh__âÇ
 62
    7
 10
413.64213223721123
 20
407.71802391925007
 40
16.288411458333343
 41
1.1764705882352935
 50
0
  1
è¯ô_çB
  0
LINE
  8
_0-3_âh__âÇ
  6
CONTINUOUS
 62
    7
 10
296.91151602277358
 20
697.49238574050378
 11
235.22718061228062
 21
697.49238574050378
  0
LINE
  8
_0-3_âh__âÇ
  6
CONTINUOUS
 62
    7
 10
296.91151602277358
 20
397.49238574050378
 11
235.22718061228062
 21
397.49238574050378
  0
CIRCLE
  8
_0-3_âh__âÇ
  6
CONTINUOUS
 62
    7
 10
235.40718061228091
 20
697.49238574050378
 40
4
  0
CIRCLE
  8
_0-3_âh__âÇ
  6
CONTINUOUS
 62
    7
 10
235.40718061228091
 20
397.49238574050378
 40
4
  0
LINE
  8
_0-3_âh__âÇ
  6
CONTINUOUS
 62
    7
 10
326.49335592441616
 20
715.529973053047
 11
326.49335592441616
 21
778.42591782512682
  0
LINE
  8
_0-3_âh__âÇ
  6
CONTINUOUS
 62
    7
 10
571.49335592441616
 20
715.529973053047
 11
571.49335592441616
 21
778.42591782512682
  0
CIRCLE
  8
_0-3_âh__âÇ
  6
CONTINUOUS
 62
    7
 10
326.49335592441616
 20
778.24591782512698
 40
4
  0
CIRCLE
  8
_0-3_âh__âÇ
  6
CONTINUOUS
 62
    7
 10
571.49335592441616
 20
778.24591782512698
 40
4
  0
LINE
  8
_0-3_âh__âÇ
  6
CONTINUOUS
 62
    7
 10
899.6163184866889
 20
504.19238559503668
 11
837.93198307619605
 21
504.19238559503668
  0
LINE
  8
_0-3_âh__âÇ
  6
CONTINUOUS
 62
    7
 10
899.6163184866889
 20
407.49238559503652
 11
837.93198307619605
 21
407.49238559503652
  0
CIRCLE
  8
_0-3_âh__âÇ
  6
CONTINUOUS
 62
    7
 10
838.11198307619634
 20
504.19238559503668
 40
4
  0
CIRCLE
  8
_0-3_âh__âÇ
  6
CONTINUOUS
 62
    7
 10
838.11198307619634
 20
407.49238559503652
 40
4
  0
LINE
  8
_0-3_âh__âÇ
  6
CONTINUOUS
 62
    7
 10
899.5538184866889
 20
504.19238559503668
 11
837.93198307619605
 21
504.19238559503668
  0
LINE
  8
_0-3_âh__âÇ
  6
CONTINUOUS
 62
    7
 10
946.89749113025744
 20
691.49238559503704
 11
837.93198307619605
 21
691.49238559503704
  0
CIRCLE
  8
_0-3_âh__âÇ
  6
CONTINUOUS
 62
    7
 10
838.11198307619634
 20
504.19238559503668
 40
4
  0
CIRCLE
  8
_0-3_âh__âÇ
  6
CONTINUOUS
 62
    7
 10
838.11198307619634
 20
691.49238559503704
 40
4
  0
LINE
  8
_0-3_âh__âÇ
  6
CONTINUOUS
 62
    7
 10
1598.5668705802454
 20
520.29238559503665
 11
1536.9450351697519
 21
520.29238559503665
  0
LINE
  8
_0-3_âh__âÇ
  6
CONTINUOUS
 62
    7
 10
1598.6293705802452
 20
407.49238559503652
 11
1536.9450351697519
 21
407.49238559503652
  0
CIRCLE
  8
_0-3_âh__âÇ
  6
CONTINUOUS
 62
    7
 10
1537.1250351697522
 20
520.29238559503665
 40
4
  0
CIRCLE
  8
_0-3_âh__âÇ
  6
CONTINUOUS
 62
    7
 10
1537.1250351697522
 20
407.49238559503652
 40
4
  0
LINE
  8
_0-3_âh__âÇ
  6
CONTINUOUS
 62
    7
 10
1598.5668705802454
 20
520.29238559503665
 11
1536.9450351697519
 21
520.29238559503665
  0
LINE
  8
_0-3_âh__âÇ
  6
CONTINUOUS
 62
    7
 10
1626.7271372742323
 20
673.79238559503619
 11
1536.9450351697519
 21
673.79238559503619
  0
CIRCLE
  8
_0-3_âh__âÇ
  6
CONTINUOUS
 62
    7
 10
1537.1250351697522
 20
520.29238559503665
 40
4
  0
CIRCLE
  8
_0-3_âh__âÇ
  6
CONTINUOUS
 62
    7
 10
1537.1250351697522
 20
673.79238559503619
 40
4
  0
LINE
  8
_0-3_âh__âÇ
  6
CONTINUOUS
 62
    7
 10
1098.8790801436551
 20
395.06122949548171
 11
1098.8790801436551
 21
356.24924280019104
  0
LINE
  8
_0-3_âh__âÇ
  6
CONTINUOUS
 62
    7
 10
1048.679080143658
 20
395.06122949548171
 11
1048.679080143658
 21
356.24924280019104
  0
CIRCLE
  8
_0-3_âh__âÇ
  6
CONTINUOUS
 62
    7
 10
1098.8790801436551
 20
356.42924280019099
 40
4
  0
CIRCLE
  8
_0-3_âh__âÇ
  6
CONTINUOUS
 62
    7
 10
1048.679080143658
 20
356.42924280019099
 40
4
  0
LINE
  8
_0-3_âh__âÇ
  6
CONTINUOUS
 62
    7
 10
1797.8921322372114
 20
395.06122949548171
 11
1797.8921322372114
 21
360.57707404394336
  0
LINE
  8
_0-3_âh__âÇ
  6
CONTINUOUS
 62
    7
 10
1709.2386171889154
 20
395.06122949548171
 11
1709.2386171889154
 21
360.57707404394336
  0
CIRCLE
  8
_0-3_âh__âÇ
  6
CONTINUOUS
 62
    7
 10
1797.8921322372114
 20
360.75707404394336
 40
4
  0
CIRCLE
  8
_0-3_âh__âÇ
  6
CONTINUOUS
 62
    7
 10
1709.2386171889154
 20
360.75707404394336
 40
4
  0
LINE
  8
_0-3_âh__âÇ
  6
CONTINUOUS
 62
    7
 10
235.40718061228091
 20
697.49238574050378
 11
235.40718061228091
 21
397.49238574050378
  0
TEXT
  8
_0-3_âh__âÇ
 62
    7
 10
235.31718061228446
 20
521.02179750520963
 40
30
 41
1.176470588235295
 50
90
  1
300
  0
LINE
  8
_0-3_âh__âÇ
  6
CONTINUOUS
 62
    7
 10
326.49335592441616
 20
778.24591782512698
 11
571.49335592441616
 21
778.24591782512698
  0
LINE
  8
_0-3_âh__âÇ
  6
CONTINUOUS
 62
    7
 10
838.11198307619634
 20
504.19238559503668
 11
838.11198307619634
 21
407.49238559503652
  0
TEXT
  8
_0-3_âh__âÇ
 62
    7
 10
838.0219830761996
 20
420.54826794797793
 40
30
 41
1.1764705882352937
 50
90
  1
96.7
  0
LINE
  8
_0-3_âh__âÇ
  6
CONTINUOUS
 62
    7
 10
838.11198307619634
 20
504.19238559503668
 11
838.11198307619634
 21
691.49238559503704
  0
TEXT
  8
_0-3_âh__âÇ
 62
    7
 10
838.0219830761996
 20
553.72473853621341
 40
30
 41
1.1764705882352942
 50
90
  1
187.3
  0
LINE
  8
_0-3_âh__âÇ
  6
CONTINUOUS
 62
    7
 10
1537.1250351697522
 20
520.29238559503665
 11
1537.1250351697522
 21
407.49238559503652
  0
TEXT
  8
_0-3_âh__âÇ
 62
    7
 10
1537.0350351697559
 20
419.77473853621319
 40
30
 41
1.1764705882352942
 50
90
  1
112.8
  0
LINE
  8
_0-3_âh__âÇ
  6
CONTINUOUS
 62
    7
 10
1537.1250351697522
 20
520.29238559503665
 11
1537.1250351697522
 21
673.79238559503619
  0
TEXT
  8
_0-3_âh__âÇ
 62
    7
 10
1537.0350351697559
 20
552.92473853621334
 40
30
 41
1.1764705882352942
 50
90
  1
153.5
  0
LINE
  8
_0-3_âh__âÇ
  6
CONTINUOUS
 62
    7
 10
1098.8790801436551
 20
356.42924280019099
 11
1048.679080143658
 21
356.42924280019099
  0
TEXT
  8
_0-3_âh__âÇ
 62
    7
 10
1038.4849624966005
 20
356.42924280019088
 40
30.000000000000142
 41
1.1764705882352904
 50
0
  1
50.2
  0
LINE
  8
_0-3_âh__âÇ
  6
CONTINUOUS
 62
    7
 10
1797.8921322372114
 20
360.75707404394336
 11
1709.2386171889154
 21
360.75707404394336
  0
TEXT
  8
_0-3_âh__âÇ
 62
    7
 10
1718.2712570660076
 20
360.84707404394351
 40
30.000000000000142
 41
1.1764705882352888
 50
0
  1
88.7
  0
TEXT
  8
_0-3_âh__âÇ
 62
    7
 10
297.49335592441639
 20
508.28686518432323
 40
24.432617187500028
 41
1.1764705882352915
 50
15.056261710000028
  1
ë±ô]Ä®ì¦É┌æ▒0üïü`ü@30üï
  0
TEXT
  8
_0-3_âh__âÇ
 62
    7
 10
404.87570886559297
 20
778.33591782512735
 40
29.999999999999858
 41
1.1764705882352997
 50
0
  1
â│245
  0
LINE
  8
_0-3_âh__âÇ
  6
DASHED1
 62
    7
 10
326.49335592441616
 20
447.49238574050378
 11
571.49335592441616
 21
447.49238574050378
  0
LINE
  8
_0-3_âh__âÇ
  6
DASHED1
 62
    7
 10
976.37908014365507
 20
457.49238559503652
 11
1221.3790801436551
 21
457.49238559503652
  0
LINE
  8
_0-3_âh__âÇ
  6
DASHED1
 62
    7
 10
1675.3921322372114
 20
457.49238559503652
 11
1920.3921322372114
 21
457.49238559503652
  0
LINE
  8
_0-3_âh__âÇ
  6
CENTER2
 62
    7
 10
448.99335592441616
 20
354.49238581558814
 11
448.99335592441616
 21
825.49238581558814
  0
LINE
  8
_0-3_âh__âÇ
  6
CENTER2
 62
    7
 10
1098.8790801436551
 20
504.1649546153435
 11
1039.6281634928016
 21
725.29238559503665
  0
LINE
  8
_0-3_âh__âÇ
  6
CENTER2
 62
    7
 10
1098.8790801436551
 20
366.29238559503665
 11
1098.8790801436551
 21
504.1649546153435
  0
LINE
  8
_0-3_âh__âÇ
  6
CENTER2
 62
    7
 10
1797.8921322372114
 20
520.25394134975522
 11
1693.8932460458525
 21
700.29238559503688
  0
LINE
  8
_0-3_âh__âÇ
  6
CENTER2
 62
    7
 10
1797.8921322372114
 20
368.29238559503676
 11
1797.8921322372114
 21
520.25394134975522
  0
TEXT
  8
_8-0_
 62
    7
 10
3400.9528793801155
 20
106.8792180227112
 40
23.999999999999773
 41
1.0000000000000078
 50
0
  1
ïZÅpüEÄ{ìHòö
  0
TEXT
  8
_8-0_
 62
    7
 10
3061.9552080014223
 20
98.206944001895522
 40
27.999999999999829
 41
1.0000000000000058
 50
0
  1
1/10
  0
TEXT
  8
_8-0_
 62
    7
 10
3033.9552080014219
 20
173.20694400189524
 40
27.999999999999972
 41
1.0000000000000002
 50
0
  1
2017/7/1
  0
TEXT
  8
_8-0_
 62
    7
 10
2553.9552080014259
 20
136.20694400189564
 40
27.999999999999829
 41
1.000000000000006
 50
0
  1
160DSâXâNâGâAâLâbâgü@CADÉ}û╩
  0
LINE
  8
_0-3_âh__âÇ
  6
CONTINUOUS
 62
    7
 10
3363.31180856424
 20
1301.1137453436706
 11
3363.31180856424
 21
1271.1137453436706
  0
LINE
  8
_0-3_âh__âÇ
  6
CONTINUOUS
 62
    7
 10
3333.31180856424
 20
1301.1137453436706
 11
3333.31180856424
 21
1271.1137453436706
  0
LINE
  8
_0-3_âh__âÇ
  6
CONTINUOUS
 62
    7
 10
3333.31180856424
 20
1301.1137453436706
 11
3363.31180856424
 21
1301.1137453436706
  0
LINE
  8
_0-3_âh__âÇ
  6
CONTINUOUS
 62
    7
 10
3333.31180856424
 20
1301.1137453436706
 11
3363.31180856424
 21
1271.1137453436706
  0
LINE
  8
_0-3_âh__âÇ
  6
CONTINUOUS
 62
    7
 10
3363.31180856424
 20
1301.1137453436706
 11
3333.31180856424
 21
1271.1137453436706
  0
LINE
  8
_0-3_âh__âÇ
  6
CONTINUOUS
 62
    7
 10
3260.81180856424
 20
1311.1137453436706
 11
3280.8118085642395
 21
1311.1137453436706
  0
LINE
  8
_0-3_âh__âÇ
  6
CONTINUOUS
 62
    7
 10
3280.8118085642395
 20
1271.1137453436706
 11
3260.81180856424
 21
1271.1137453436706
  0
LINE
  8
_0-3_âh__âÇ
  6
CONTINUOUS
 62
    7
 10
3260.81180856424
 20
1271.1137453436706
 11
3260.81180856424
 21
1311.1137453436706
  0
LINE
  8
_0-3_âh__âÇ
  6
CONTINUOUS
 62
    7
 10
3280.8118085642395
 20
1311.1137453436706
 11
3260.81180856424
 21
1271.1137453436706
  0
LINE
  8
_0-3_âh__âÇ
  6
CONTINUOUS
 62
    7
 10
3260.81180856424
 20
1311.1137453436706
 11
3280.8118085642395
 21
1271.1137453436706
  0
LINE
  8
_0-3_âh__âÇ
  6
CONTINUOUS
 62
    7
 10
3260.81180856424
 20
1311.1137453436706
 11
3280.8118085642395
 21
1311.1137453436706
  0
LINE
  8
_0-3_âh__âÇ
  6
CONTINUOUS
 62
    7
 10
3280.8118085642395
 20
1311.1137453436706
 11
3280.8118085642395
 21
1271.1137453436706
  0
LINE
  8
_0-3_âh__âÇ
  6
CONTINUOUS
 62
    7
 10
3280.8118085642395
 20
1271.1137453436706
 11
3260.81180856424
 21
1271.1137453436706
  0
LINE
  8
_0-3_âh__âÇ
  6
CONTINUOUS
 62
    7
 10
3260.81180856424
 20
1271.1137453436706
 11
3260.81180856424
 21
1311.1137453436706
  0
LINE
  8
_0-3_âh__âÇ
  6
CONTINUOUS
 62
    7
 10
3280.8118085642395
 20
1311.1137453436706
 11
3260.81180856424
 21
1271.1137453436706
  0
LINE
  8
_0-3_âh__âÇ
  6
CONTINUOUS
 62
    7
 10
3260.81180856424
 20
1311.1137453436706
 11
3280.8118085642395
 21
1271.1137453436706
  0
LINE
  8
_0-3_âh__âÇ
  6
CONTINUOUS
 62
    7
 10
3280.8118085642395
 20
1311.1137453436706
 11
3280.8118085642395
 21
1271.1137453436706
  0
LINE
  8
_0-3_âh__âÇ
  6
CONTINUOUS
 62
    7
 10
3715.81180856424
 20
1311.1137453436706
 11
3735.81180856424
 21
1311.1137453436706
  0
LINE
  8
_0-3_âh__âÇ
  6
CONTINUOUS
 62
    7
 10
3735.81180856424
 20
1311.1137453436706
 11
3735.81180856424
 21
1271.1137453436706
  0
LINE
  8
_0-3_âh__âÇ
  6
CONTINUOUS
 62
    7
 10
3735.81180856424
 20
1271.1137453436706
 11
3715.81180856424
 21
1271.1137453436706
  0
LINE
  8
_0-3_âh__âÇ
  6
CONTINUOUS
 62
    7
 10
3715.81180856424
 20
1271.1137453436706
 11
3715.81180856424
 21
1311.1137453436706
  0
LINE
  8
_0-3_âh__âÇ
  6
CONTINUOUS
 62
    7
 10
3715.81180856424
 20
1311.1137453436706
 11
3735.81180856424
 21
1271.1137453436706
  0
LINE
  8
_0-3_âh__âÇ
  6
CONTINUOUS
 62
    7
 10
3735.81180856424
 20
1311.1137453436706
 11
3715.81180856424
 21
1271.1137453436706
  0
LINE
  8
_0-3_âh__âÇ
  6
CONTINUOUS
 62
    7
 10
3715.81180856424
 20
1311.1137453436706
 11
3735.81180856424
 21
1311.1137453436706
  0
LINE
  8
_0-3_âh__âÇ
  6
CONTINUOUS
 62
    7
 10
3735.81180856424
 20
1311.1137453436706
 11
3735.81180856424
 21
1271.1137453436706
  0
LINE
  8
_0-3_âh__âÇ
  6
CONTINUOUS
 62
    7
 10
3735.81180856424
 20
1271.1137453436706
 11
3715.81180856424
 21
1271.1137453436706
  0
LINE
  8
_0-3_âh__âÇ
  6
CONTINUOUS
 62
    7
 10
3715.81180856424
 20
1271.1137453436706
 11
3715.81180856424
 21
1311.1137453436706
  0
LINE
  8
_0-3_âh__âÇ
  6
CONTINUOUS
 62
    7
 10
3715.81180856424
 20
1311.1137453436706
 11
3735.81180856424
 21
1271.1137453436706
  0
LINE
  8
_0-3_âh__âÇ
  6
CONTINUOUS
 62
    7
 10
3735.81180856424
 20
1311.1137453436706
 11
3715.81180856424
 21
1271.1137453436706
  0
LINE
  8
_0-3_âh__âÇ
  6
CONTINUOUS
 62
    7
 10
3663.31180856424
 20
1301.1137453436706
 11
3663.31180856424
 21
1271.1137453436706
  0
LINE
  8
_0-3_âh__âÇ
  6
CONTINUOUS
 62
    7
 10
3633.31180856424
 20
1301.1137453436706
 11
3633.31180856424
 21
1271.1137453436706
  0
LINE
  8
_0-3_âh__âÇ
  6
CONTINUOUS
 62
    7
 10
3633.31180856424
 20
1301.1137453436706
 11
3663.31180856424
 21
1301.1137453436706
  0
LINE
  8
_0-3_âh__âÇ
  6
CONTINUOUS
 62
    7
 10
3633.31180856424
 20
1301.1137453436706
 11
3663.31180856424
 21
1271.1137453436706
  0
LINE
  8
_0-3_âh__âÇ
  6
CONTINUOUS
 62
    7
 10
3663.31180856424
 20
1301.1137453436706
 11
3633.31180856424
 21
1271.1137453436706
  0
LINE
  8
_f-f_
  6
CONTINUOUS
 62
    7
 10
2071.019545793763
 20
2466.2583393726622
 11
2071.019545793763
 21
2471.2583393726622
  0
LINE
  8
_f-f_
  6
CONTINUOUS
 62
    7
 10
1739.0195457937627
 20
2466.2583393726622
 11
1739.0195457937627
 21
2471.2583393726622
  0
LINE
  8
_f-f_
  6
CONTINUOUS
 62
    7
 10
1739.0195457937627
 20
2466.2583393726622
 11
2071.019545793763
 21
2466.2583393726622
  0
TEXT
  8
_0-3_âh__âÇ
 62
    7
 10
133.53280487554031
 20
2080.4077758530225
 40
24.253472222222214
 41
1.1764705882352942
 50
0
  1
üªâXâNâGâAâXâ^ü[â^ü[âLâbâgé╔è▄é▄éÛéÚ
  0
CIRCLE
  8
_0-3_âh__âÇ
  6
CONTINUOUS
 62
    7
 10
2119.3143616890038
 20
2481.2583393726622
 40
4
  0
LINE
  8
_0-3_âh__âÇ
  6
CONTINUOUS
 62
    7
 10
2115.9921139076059
 20
2470.0683393594327
 11
2115.9693002298181
 21
2470.0683393594327
  0
CIRCLE
  8
_0-3_âh__âÇ
  6
CONTINUOUS
 62
    7
 10
2119.3143616890038
 20
2466.2583393726622
 40
4
  0
LINE
  8
_0-3_âh__âÇ
  6
CONTINUOUS
 62
    7
 10
2119.3143616890038
 20
2524.0897866983751
 11
2119.3143616890038
 21
2435.925146687387
  0
TEXT
  8
_0-3_âh__âÇ
 62
    7
 10
2117.6912314304695
 20
2488.2189203292037
 40
29.999999999999993
 41
1.1764705882352982
 50
90
  1
10
  0
TEXT
  8
_f-f_
 62
    7
 10
2119.3143616890038
 20
2435.925146687387
 40
29.999999999999993
 41
1.1764705882352982
 50
90
  1
5
  0
LINE
  8
_0-3_âh__âÇ
  6
CONTINUOUS
 62
    7
 10
2078.8946107176153
 20
2481.2583393726622
 11
2119.4943616890041
 21
2481.2583393726622
  0
LINE
  8
_f-f_
  6
CONTINUOUS
 62
    7
 10
2086.0380102638233
 20
2471.2583393726622
 11
2119.3143616890038
 21
2471.2583393726622
  0
LINE
  8
_f-f_
  6
CONTINUOUS
 62
    7
 10
2086.0380102638233
 20
2466.2583393726622
 11
2119.3143616890038
 21
2466.2583393726622
  0
LINE
  8
_0-3_âh__âÇ
  6
CONTINUOUS
 62
    7
 10
2115.9921139076059
 20
2703.2256032017713
 11
2115.9693002298181
 21
2703.2256032017713
  0
CIRCLE
  8
_0-3_âh__âÇ
  6
CONTINUOUS
 62
    7
 10
2119.3143616890038
 20
2708.940603215
 40
4
  0
CIRCLE
  8
_0-3_âh__âÇ
  6
CONTINUOUS
 62
    7
 10
2119.3143616890038
 20
2699.4156032149999
 40
4
  0
TEXT
  8
_0-3_âh__âÇ
 62
    7
 10
2117.6912314304695
 20
2715.9011841715414
 40
29.999999999999993
 41
1.1764705882352933
 50
90
  1
10
  0
LINE
  8
_0-3_âh__âÇ
  6
CONTINUOUS
 62
    7
 10
2119.3143616890038
 20
2751.7720505407124
 11
2119.3143616890038
 21
2698.940603215
  0
LINE
  8
_0-3_âh__âÇ
  6
CONTINUOUS
 62
    7
 10
2086.0380102638233
 20
2708.940603215
 11
2119.4943616890041
 21
2708.940603215
  0
LINE
  8
_f-f_
  6
CONTINUOUS
 62
    7
 10
2086.0380102638233
 20
2698.940603215
 11
2119.3143616890038
 21
2698.940603215
  0
LINE
  8
_0-3_âh__âÇ
  6
CONTINUOUS
 62
    7
 10
2115.9921139076059
 20
2475.0683393594327
 11
2115.9693002298181
 21
2475.0683393594327
  0
CIRCLE
  8
_0-3_âh__âÇ
  6
CONTINUOUS
 62
    7
 10
2119.3143616890038
 20
2471.2583393726622
 40
4
  0
TEXT
  8
_0-3_âh__âÇ
 62
    7
 10
1878.5489575584688
 20
2384.853162843171
 40
30
 41
1.176470588235295
 50
0
  1
332
  0
LINE
  8
_f-f_
  6
CONTINUOUS
 62
    7
 10
3338.3118085641681
 20
1229.020990250945
 11
3338.3118085641681
 21
1121.5052556663168
  0
ENDSEC
  0
EOF
