  0
SECTION
  2
HEADER
  9
$ACADVER
  1
AC1015
  9
$ACADMAINTVER
 70
    20
  9
$DWGCODEPAGE
  3
ANSI_932
  9
$INSBASE
 10
0.0
 20
0.0
 30
0.0
  9
$EXTMIN
 10
10002.20278430509
 20
-16859.35659072768
 30
0.0
  9
$EXTMAX
 10
12895.45278430524
 20
-14850.05659072758
 30
0.0
  9
$LIMMIN
 10
0.0
 20
0.0
  9
$LIMMAX
 10
0.0
 20
0.0
  9
$ORTHOMODE
 70
     0
  9
$REGENMODE
 70
     1
  9
$FILLMODE
 70
     1
  9
$QTEXTMODE
 70
     0
  9
$MIRRTEXT
 70
     1
  9
$LTSCALE
 40
12.7
  9
$ATTMODE
 70
     1
  9
$TEXTSIZE
 40
0.2
  9
$TRACEWID
 40
0.05
  9
$TEXTSTYLE
  7
STANDARD
  9
$CLAYER
  8
0
  9
$CELTYPE
  6
ByLayer
  9
$CECOLOR
 62
   256
  9
$CELTSCALE
 40
1.0
  9
$DISPSILH
 70
     0
  9
$DIMSCALE
 40
1.0
  9
$DIMASZ
 40
10.0
  9
$DIMEXO
 40
0.0
  9
$DIMDLI
 40
0.38
  9
$DIMRND
 40
0.0
  9
$DIMDLE
 40
0.0
  9
$DIMEXE
 40
0.0
  9
$DIMTP
 40
0.0
  9
$DIMTM
 40
0.0
  9
$DIMTXT
 40
25.0
  9
$DIMCEN
 40
0.09
  9
$DIMTSZ
 40
0.0
  9
$DIMTOL
 70
     0
  9
$DIMLIM
 70
     0
  9
$DIMTIH
 70
     0
  9
$DIMTOH
 70
     0
  9
$DIMSE1
 70
     0
  9
$DIMSE2
 70
     0
  9
$DIMTAD
 70
     1
  9
$DIMZIN
 70
     0
  9
$DIMBLK
  1
Origin
  9
$DIMASO
 70
     1
  9
$DIMSHO
 70
     1
  9
$DIMPOST
  1

  9
$DIMAPOST
  1

  9
$DIMALT
 70
     0
  9
$DIMALTD
 70
     2
  9
$DIMALTF
 40
25.4
  9
$DIMLFAC
 40
1.0
  9
$DIMTOFL
 70
     0
  9
$DIMTVP
 40
0.0
  9
$DIMTIX
 70
     0
  9
$DIMSOXD
 70
     0
  9
$DIMSAH
 70
     0
  9
$DIMBLK1
  1

  9
$DIMBLK2
  1

  9
$DIMSTYLE
  2
10
  9
$DIMCLRD
 70
     5
  9
$DIMCLRE
 70
     5
  9
$DIMCLRT
 70
   256
  9
$DIMTFAC
 40
1.0
  9
$DIMGAP
 40
0.0
  9
$DIMJUST
 70
     0
  9
$DIMSD1
 70
     0
  9
$DIMSD2
 70
     0
  9
$DIMTOLJ
 70
     1
  9
$DIMTZIN
 70
     0
  9
$DIMALTZ
 70
     0
  9
$DIMALTTZ
 70
     0
  9
$DIMUPT
 70
     0
  9
$DIMDEC
 70
     0
  9
$DIMTDEC
 70
     0
  9
$DIMALTU
 70
     2
  9
$DIMALTTD
 70
     2
  9
$DIMTXSTY
  7
STANDARD
  9
$DIMAUNIT
 70
     0
  9
$DIMADEC
 70
     0
  9
$DIMALTRND
 40
0.0
  9
$DIMAZIN
 70
     0
  9
$DIMDSEP
 70
    46
  9
$DIMATFIT
 70
     3
  9
$DIMFRAC
 70
     0
  9
$DIMLDRBLK
  1

  9
$DIMLUNIT
 70
     2
  9
$DIMLWD
 70
    -2
  9
$DIMLWE
 70
    -2
  9
$DIMTMOVE
 70
     0
  9
$LUNITS
 70
     2
  9
$LUPREC
 70
     0
  9
$SKETCHINC
 40
0.1
  9
$FILLETRAD
 40
0.0
  9
$AUNITS
 70
     0
  9
$AUPREC
 70
     0
  9
$MENU
  1
.
  9
$ELEVATION
 40
0.0
  9
$PELEVATION
 40
0.0
  9
$THICKNESS
 40
0.0
  9
$LIMCHECK
 70
     0
  9
$CHAMFERA
 40
0.0
  9
$CHAMFERB
 40
0.0
  9
$CHAMFERC
 40
1.0
  9
$CHAMFERD
 40
0.0
  9
$SKPOLY
 70
     0
  9
$TDCREATE
 40
2454649.110869850
  9
$TDUCREATE
 40
2454648.735869850
  9
$TDUPDATE
 40
2457102.676282766
  9
$TDUUPDATE
 40
2457102.301282766
  9
$TDINDWG
 40
1.1341628241
  9
$TDUSRTIMER
 40
1.1341627083
  9
$USRTIMER
 70
     1
  9
$ANGBASE
 50
0.0
  9
$ANGDIR
 70
     0
  9
$PDMODE
 70
     0
  9
$PDSIZE
 40
-1.0
  9
$PLINEWID
 40
0.0
  9
$SPLFRAME
 70
     0
  9
$SPLINETYPE
 70
     6
  9
$SPLINESEGS
 70
     8
  9
$HANDSEED
  5
7A929
  9
$SURFTAB1
 70
     6
  9
$SURFTAB2
 70
     6
  9
$SURFTYPE
 70
     6
  9
$SURFU
 70
     6
  9
$SURFV
 70
     6
  9
$UCSBASE
  2

  9
$UCSNAME
  2

  9
$UCSORG
 10
0.0
 20
0.0
 30
0.0
  9
$UCSXDIR
 10
1.0
 20
0.0
 30
0.0
  9
$UCSYDIR
 10
0.0
 20
1.0
 30
0.0
  9
$UCSORTHOREF
  2

  9
$UCSORTHOVIEW
 70
     0
  9
$UCSORGTOP
 10
0.0
 20
0.0
 30
0.0
  9
$UCSORGBOTTOM
 10
0.0
 20
0.0
 30
0.0
  9
$UCSORGLEFT
 10
0.0
 20
0.0
 30
0.0
  9
$UCSORGRIGHT
 10
0.0
 20
0.0
 30
0.0
  9
$UCSORGFRONT
 10
0.0
 20
0.0
 30
0.0
  9
$UCSORGBACK
 10
0.0
 20
0.0
 30
0.0
  9
$PUCSBASE
  2

  9
$PUCSNAME
  2

  9
$PUCSORG
 10
0.0
 20
0.0
 30
0.0
  9
$PUCSXDIR
 10
1.0
 20
0.0
 30
0.0
  9
$PUCSYDIR
 10
0.0
 20
1.0
 30
0.0
  9
$PUCSORTHOREF
  2

  9
$PUCSORTHOVIEW
 70
     0
  9
$PUCSORGTOP
 10
0.0
 20
0.0
 30
0.0
  9
$PUCSORGBOTTOM
 10
0.0
 20
0.0
 30
0.0
  9
$PUCSORGLEFT
 10
0.0
 20
0.0
 30
0.0
  9
$PUCSORGRIGHT
 10
0.0
 20
0.0
 30
0.0
  9
$PUCSORGFRONT
 10
0.0
 20
0.0
 30
0.0
  9
$PUCSORGBACK
 10
0.0
 20
0.0
 30
0.0
  9
$USERI1
 70
     0
  9
$USERI2
 70
     0
  9
$USERI3
 70
     0
  9
$USERI4
 70
     0
  9
$USERI5
 70
     0
  9
$USERR1
 40
0.0
  9
$USERR2
 40
0.0
  9
$USERR3
 40
0.0
  9
$USERR4
 40
0.0
  9
$USERR5
 40
0.0
  9
$WORLDVIEW
 70
     1
  9
$SHADEDGE
 70
     3
  9
$SHADEDIF
 70
    70
  9
$TILEMODE
 70
     1
  9
$MAXACTVP
 70
    64
  9
$PINSBASE
 10
0.0
 20
0.0
 30
0.0
  9
$PLIMCHECK
 70
     0
  9
$PEXTMIN
 10
1.000000000000000E+20
 20
1.000000000000000E+20
 30
1.000000000000000E+20
  9
$PEXTMAX
 10
-1.000000000000000E+20
 20
-1.000000000000000E+20
 30
-1.000000000000000E+20
  9
$PLIMMIN
 10
0.0
 20
0.0
  9
$PLIMMAX
 10
12.0
 20
9.0
  9
$UNITMODE
 70
     0
  9
$VISRETAIN
 70
     1
  9
$PLINEGEN
 70
     0
  9
$PSLTSCALE
 70
     1
  9
$TREEDEPTH
 70
  3020
  9
$CMLSTYLE
  2
Standard
  9
$CMLJUST
 70
     0
  9
$CMLSCALE
 40
1.0
  9
$PROXYGRAPHICS
 70
     1
  9
$MEASUREMENT
 70
     0
  9
$CELWEIGHT
370
    -1
  9
$ENDCAPS
280
     0
  9
$JOINSTYLE
280
     0
  9
$LWDISPLAY
290
     0
  9
$INSUNITS
 70
     1
  9
$HYPERLINKBASE
  1

  9
$STYLESHEET
  1
HIROYA.CTB
  9
$XEDIT
290
     1
  9
$CEPSNTYPE
380
     0
  9
$PSTYLEMODE
290
     1
  9
$FINGERPRINTGUID
  2
{7F097ECC-B92E-45F1-AE35-033F8AE7DCED}
  9
$VERSIONGUID
  2
{4A613F80-905B-472E-A5C6-14E26C8E27E3}
  9
$EXTNAMES
290
     1
  9
$PSVPSCALE
 40
0.0
  9
$OLESTARTUP
290
     0
  0
ENDSEC
  0
SECTION
  2
CLASSES
  0
CLASS
  1
ACDBDICTIONARYWDFLT
  2
AcDbDictionaryWithDefault
  3
ObjectDBX Classes
 90
        0
280
     0
281
     0
  0
CLASS
  1
ACDBPLACEHOLDER
  2
AcDbPlaceHolder
  3
ObjectDBX Classes
 90
        0
280
     0
281
     0
  0
CLASS
  1
LAYOUT
  2
AcDbLayout
  3
ObjectDBX Classes
 90
        0
280
     0
281
     0
  0
CLASS
  1
TABLESTYLE
  2
AcDbTableStyle
  3
ObjectDBX Classes
 90
     4095
280
     0
281
     0
  0
CLASS
  1
DICTIONARYVAR
  2
AcDbDictionaryVar
  3
ObjectDBX Classes
 90
        0
280
     0
281
     0
  0
CLASS
  1
SORTENTSTABLE
  2
AcDbSortentsTable
  3
ObjectDBX Classes
 90
        0
280
     0
281
     0
  0
CLASS
  1
MATERIAL
  2
AcDbMaterial
  3
ObjectDBX Classes
 90
     1153
280
     0
281
     0
  0
CLASS
  1
ACAD_EVALUATION_GRAPH
  2
AcDbEvalGraph
  3
ObjectDBX Classes
 90
    33921
280
     0
281
     0
  0
CLASS
  1
ACAECUSTOBJ
  2
AcAeEditorObj
  3
AcAeEditorObj
 90
    33792
280
     0
281
     0
  0
CLASS
  1
VISUALSTYLE
  2
AcDbVisualStyle
  3
ObjectDBX Classes
 90
     4095
280
     0
281
     0
  0
CLASS
  1
SCALE
  2
AcDbScale
  3
ObjectDBX Classes
 90
     1153
280
     0
281
     0
  0
CLASS
  1
MLEADERSTYLE
  2
AcDbMLeaderStyle
  3
ACDB_MLEADERSTYLE_CLASS
 90
     4095
280
     0
281
     0
  0
CLASS
  1
CELLSTYLEMAP
  2
AcDbCellStyleMap
  3
ObjectDBX Classes
 90
     1152
280
     0
281
     0
  0
CLASS
  1
SOLID_BACKGROUND
  2
AcDbSolidBackground
  3
SCENEOE
 90
    36863
280
     0
281
     0
  0
CLASS
  1
NPOCOLLECTION
  2
AcDbImpNonPersistentObjectsCollection
  3
ObjectDBX Classes
 90
     1153
280
     0
281
     0
  0
CLASS
  1
IMAGEDEF
  2
AcDbRasterImageDef
  3
ISM
 90
        0
280
     0
281
     0
  0
CLASS
  1
RASTERVARIABLES
  2
AcDbRasterVariables
  3
ISM
 90
        0
280
     0
281
     0
  0
CLASS
  1
IMAGEDEF_REACTOR
  2
AcDbRasterImageDefReactor
  3
ISM
 90
    32769
280
     0
281
     0
  0
CLASS
  1
IMAGE
  2
AcDbRasterImage
  3
ISM
 90
    34943
280
     0
281
     1
  0
CLASS
  1
EXACXREFPANELOBJECT
  2
ExAcXREFPanelObject
  3
EXAC_ESW
 90
     1025
280
     0
281
     0
  0
ENDSEC
  0
SECTION
  2
TABLES
  0
TABLE
  2
VPORT
  5
8
102
{ACAD_XDICTIONARY
360
477CD
102
}
330
0
100
AcDbSymbolTable
 70
     1
  0
VPORT
  5
2DF30
330
8
100
AcDbSymbolTableRecord
100
AcDbViewportTableRecord
  2
*Active
 70
     0
 10
0.0
 20
0.0
 11
1.0
 21
1.0
 12
-4832.5177856719
 22
-11788.54571918037
 13
0.0
 23
0.0
 14
0.5
 24
0.5
 15
0.5
 25
0.5
 16
-0.0000000000218279
 26
0.0
 36
102991.6968253686
 17
16575.00438560767
 27
-4157.048793872454
 37
-571.6532864001305
 40
2146.807437922122
 41
1.85645933014354
 42
50.0
 43
0.0
 44
0.0
 50
0.0
 51
0.0
 71
     0
 72
  2000
 73
     1
 74
     3
 75
     0
 76
     0
 77
     0
 78
     0
281
     0
 65
     1
110
0.0
120
0.0
130
0.0
111
1.0
121
0.0
131
0.0
112
0.0
122
1.0
132
0.0
 79
     0
146
0.0
  0
ENDTAB
  0
TABLE
  2
LTYPE
  5
5
330
0
100
AcDbSymbolTable
 70
     4
  0
LTYPE
  5
14
330
5
100
AcDbSymbolTableRecord
100
AcDbLinetypeTableRecord
  2
ByBlock
 70
     0
  3

 72
    65
 73
     0
 40
0.0
  0
LTYPE
  5
15
330
5
100
AcDbSymbolTableRecord
100
AcDbLinetypeTableRecord
  2
ByLayer
 70
     0
  3

 72
    65
 73
     0
 40
0.0
  0
LTYPE
  5
16
330
5
100
AcDbSymbolTableRecord
100
AcDbLinetypeTableRecord
  2
Continuous
 70
     0
  3
Solid line
 72
    65
 73
     0
 40
0.0
  0
LTYPE
  5
2A
330
5
100
AcDbSymbolTableRecord
100
AcDbLinetypeTableRecord
  2
SLD-Solid
 70
     0
  3
SolidWorks Line Style
 72
    65
 73
     0
 40
0.0
  0
LTYPE
  5
8868
330
5
100
AcDbSymbolTableRecord
100
AcDbLinetypeTableRecord
  2
STYLE_07
 70
     0
  3

 72
    65
 73
     6
 40
7.5
 49
2.5
 74
     0
 49
-0.8331199999999999
 74
     0
 49
2.5
 74
     0
 49
-0.8334399999999996
 74
     0
 49
0.2777200000000002
 74
     0
 49
-0.5557199999999996
 74
     0
  0
ENDTAB
  0
TABLE
  2
LAYER
  5
2
330
0
100
AcDbSymbolTable
 70
     5
  0
LAYER
  5
10
102
{ACAD_XDICTIONARY
360
477BD
102
}
330
2
100
AcDbSymbolTableRecord
100
AcDbLayerTableRecord
  2
0
 70
     0
 62
     7
  6
Continuous
370
    -3
390
F
  0
LAYER
  5
9F2
330
2
100
AcDbSymbolTableRecord
100
AcDbLayerTableRecord
  2
Defpoints
 70
     0
 62
     7
  6
Continuous
290
     0
370
    -3
390
F
  0
LAYER
  5
8869
102
{ACAD_XDICTIONARY
360
477BF
102
}
330
2
100
AcDbSymbolTableRecord
100
AcDbLayerTableRecord
  2
__
 70
     0
 62
     7
  6
Continuous
370
    -3
390
F
  0
LAYER
  5
88CE
102
{ACAD_XDICTIONARY
360
477C1
102
}
330
2
100
AcDbSymbolTableRecord
100
AcDbLayerTableRecord
  2
__-1
 70
     0
 62
     7
  6
Continuous
370
    -3
390
F
  0
LAYER
  5
88CF
102
{ACAD_XDICTIONARY
360
477C3
102
}
330
2
100
AcDbSymbolTableRecord
100
AcDbLayerTableRecord
  2
_0-2_用紙フォ__マット_1_1_
 70
     0
 62
     7
  6
Continuous
370
    -3
390
F
  0
ENDTAB
  0
TABLE
  2
STYLE
  5
3
330
0
100
AcDbSymbolTable
 70
     4
  0
STYLE
  5
11
330
3
100
AcDbSymbolTableRecord
100
AcDbTextStyleTableRecord
  2
STANDARD
 70
     0
 40
0.0
 41
1.0
 50
0.0
 71
     0
 42
0.2
  3
GOTHIC.TTF
  4

1001
ACAD
1000
Century Gothic
1071
       34
  0
STYLE
  5
88D0
330
3
100
AcDbSymbolTableRecord
100
AcDbTextStyleTableRecord
  2
ARIAL
 70
     0
 40
0.0
 41
1.0
 50
0.0
 71
     0
 42
0.0
  3
Arial
  4

  0
STYLE
  5
88D1
330
3
100
AcDbSymbolTableRecord
100
AcDbTextStyleTableRecord
  2
________
 70
     0
 40
0.0
 41
1.0
 50
0.0
 71
     0
 42
0.0
  3
ＭＳ Ｐゴシック
  4

  0
STYLE
  5
88D2
330
3
100
AcDbSymbolTableRecord
100
AcDbTextStyleTableRecord
  2
________-B
 70
     0
 40
0.0
 41
1.0
 50
0.0
 71
     0
 42
0.0
  3
ＭＳ Ｐゴシック
  4

  0
ENDTAB
  0
TABLE
  2
VIEW
  5
6
330
0
100
AcDbSymbolTable
 70
     0
  0
ENDTAB
  0
TABLE
  2
UCS
  5
7
330
0
100
AcDbSymbolTable
 70
     0
  0
ENDTAB
  0
TABLE
  2
APPID
  5
9
330
0
100
AcDbSymbolTable
 70
    17
  0
APPID
  5
12
330
9
100
AcDbSymbolTableRecord
100
AcDbRegAppTableRecord
  2
ACAD
 70
     0
  0
APPID
  5
3361
330
9
100
AcDbSymbolTableRecord
100
AcDbRegAppTableRecord
  2
ACAD_DSTYLE_DIMTEXT_FILL
 70
     0
  0
APPID
  5
3362
330
9
100
AcDbSymbolTableRecord
100
AcDbRegAppTableRecord
  2
ACAD_DSTYLE_DIMEXT_LENGTH
 70
     0
  0
APPID
  5
3363
330
9
100
AcDbSymbolTableRecord
100
AcDbRegAppTableRecord
  2
ACAD_DSTYLE_DIMEXT_ENABLED
 70
     0
  0
APPID
  5
3364
330
9
100
AcDbSymbolTableRecord
100
AcDbRegAppTableRecord
  2
ACAD_DSTYLE_DIM_LINETYPE
 70
     0
  0
APPID
  5
3365
330
9
100
AcDbSymbolTableRecord
100
AcDbRegAppTableRecord
  2
ACAD_DSTYLE_DIM_EXT1_LINETYPE
 70
     0
  0
APPID
  5
3366
330
9
100
AcDbSymbolTableRecord
100
AcDbRegAppTableRecord
  2
ACAD_DSTYLE_DIM_EXT2_LINETYPE
 70
     0
  0
APPID
  5
3422
330
9
100
AcDbSymbolTableRecord
100
AcDbRegAppTableRecord
  2
ACAD_DSTYLE_DIMJOGGED_JOGANGLE_SYMBOL
 70
     0
  0
APPID
  5
3876
330
9
100
AcDbSymbolTableRecord
100
AcDbRegAppTableRecord
  2
ACAD_DSTYLE_DIMARC_LENGTH_SYMBOL
 70
     0
  0
APPID
  5
886B
330
9
100
AcDbSymbolTableRecord
100
AcDbRegAppTableRecord
  2
ACAD_PSEXT
 70
     0
  0
APPID
  5
8878
330
9
100
AcDbSymbolTableRecord
100
AcDbRegAppTableRecord
  2
ACAD_EXEMPT_FROM_CAD_STANDARDS
 70
     0
  0
APPID
  5
20081
330
9
100
AcDbSymbolTableRecord
100
AcDbRegAppTableRecord
  2
ACAUTHENVIRON
 70
     0
  0
APPID
  5
2DF7E
330
9
100
AcDbSymbolTableRecord
100
AcDbRegAppTableRecord
  2
ACAD_MLEADERVER
 70
     0
  0
APPID
  5
42B31
330
9
100
AcDbSymbolTableRecord
100
AcDbRegAppTableRecord
  2
ACAD_DSTYLE_DIMJAG
 70
     0
  0
APPID
  5
42B32
330
9
100
AcDbSymbolTableRecord
100
AcDbRegAppTableRecord
  2
ACAD_DSTYLE_DIMTALN
 70
     0
  0
APPID
  5
43E8F
330
9
100
AcDbSymbolTableRecord
100
AcDbRegAppTableRecord
  2
ACAD_DSTYLE_DIMRADIAL_EXTENSION
 70
     0
  0
APPID
  5
4AC27
330
9
100
AcDbSymbolTableRecord
100
AcDbRegAppTableRecord
  2
DCO15
 70
     0
  0
ENDTAB
  0
TABLE
  2
DIMSTYLE
  5
A
330
0
100
AcDbSymbolTable
 70
     2
100
AcDbDimStyleTable
 71
     2
340
387B
340
27
  0
DIMSTYLE
105
27
330
A
100
AcDbSymbolTableRecord
100
AcDbDimStyleTableRecord
  2
Standard
 70
     0
340
11
  0
DIMSTYLE
105
387B
330
A
100
AcDbSymbolTableRecord
100
AcDbDimStyleTableRecord
  2
10
 70
     0
 41
10.0
 42
0.0
 44
0.0
 73
     0
 74
     0
 77
     1
140
25.0
147
0.0
176
     5
177
     5
178
   256
271
     0
272
     0
340
11
342
5557
1001
ACAD_DSTYLE_DIMJOGGED_JOGANGLE_SYMBOL
1070
   384
1040
0.7853981633974483
1001
ACAD_DSTYLE_DIMJAG
1070
   388
1040
1.5
1001
ACAD_DSTYLE_DIMTALN
1070
   392
1070
     0
1001
ACAD_DSTYLE_DIMEXT_LENGTH
1070
   378
1040
0.25
  0
ENDTAB
  0
TABLE
  2
BLOCK_RECORD
  5
1
330
0
100
AcDbSymbolTable
 70
     4
  0
BLOCK_RECORD
  5
1F
102
{ACAD_XDICTIONARY
360
8872
102
}
330
1
100
AcDbSymbolTableRecord
100
AcDbBlockTableRecord
  2
*Model_Space
340
22
  0
BLOCK_RECORD
  5
1B
330
1
100
AcDbSymbolTableRecord
100
AcDbBlockTableRecord
  2
*Paper_Space
340
1E
  0
BLOCK_RECORD
  5
23
330
1
100
AcDbSymbolTableRecord
100
AcDbBlockTableRecord
  2
*Paper_Space0
340
26
  0
BLOCK_RECORD
  5
5557
330
1
100
AcDbSymbolTableRecord
100
AcDbBlockTableRecord
  2
_Origin
340
0
102
{BLKREFS
331
7A832
331
7A833
331
7A838
331
7A839
331
7A83E
331
7A83F
331
7A844
331
7A845
331
7A84A
331
7A84B
331
7A850
331
7A851
102
}
  0
BLOCK_RECORD
  5
8887
330
1
100
AcDbSymbolTableRecord
100
AcDbBlockTableRecord
  2
-000-スカイマ__ク
340
0
102
{BLKREFS
331
88C8
102
}
  0
BLOCK_RECORD
  5
88C6
330
1
100
AcDbSymbolTableRecord
100
AcDbBlockTableRecord
  2
A$C19575CB4
340
0
102
{BLKREFS
331
7A853
102
}
  0
ENDTAB
  0
ENDSEC
  0
SECTION
  2
BLOCKS
  0
BLOCK
  5
20
330
1F
100
AcDbEntity
  8
0
100
AcDbBlockBegin
  2
*Model_Space
 70
     0
 10
0.0
 20
0.0
 30
0.0
  3
*Model_Space
  1

  0
ENDBLK
  5
21
330
1F
100
AcDbEntity
  8
0
100
AcDbBlockEnd
  0
BLOCK
  5
1C
330
1B
100
AcDbEntity
 67
     1
  8
0
100
AcDbBlockBegin
  2
*Paper_Space
 70
     0
 10
0.0
 20
0.0
 30
0.0
  3
*Paper_Space
  1

  0
ENDBLK
  5
1D
330
1B
100
AcDbEntity
 67
     1
  8
0
100
AcDbBlockEnd
  0
BLOCK
  5
24
330
23
100
AcDbEntity
 67
     1
  8
0
100
AcDbBlockBegin
  2
*Paper_Space0
 70
     0
 10
0.0
 20
0.0
 30
0.0
  3
*Paper_Space0
  1

  0
ENDBLK
  5
25
330
23
100
AcDbEntity
 67
     1
  8
0
100
AcDbBlockEnd
  0
BLOCK
  5
555A
330
5557
100
AcDbEntity
  8
0
100
AcDbBlockBegin
  2
_Origin
 70
     0
 10
0.0
 20
0.0
 30
0.0
  3
_Origin
  1

  0
CIRCLE
  5
5558
330
5557
100
AcDbEntity
  8
0
  6
ByBlock
 62
     0
370
    -2
100
AcDbCircle
 10
0.0
 20
0.0
 30
0.0
 40
0.5
  0
LINE
  5
5559
330
5557
100
AcDbEntity
  8
0
  6
ByBlock
 62
     0
370
    -2
100
AcDbLine
 10
0.0
 20
0.0
 30
0.0
 11
-1.0
 21
0.0
 31
0.0
  0
ENDBLK
  5
555B
330
5557
100
AcDbEntity
  8
0
100
AcDbBlockEnd
  0
BLOCK
  5
8888
330
8887
100
AcDbEntity
  8
0
100
AcDbBlockBegin
  2
-000-スカイマ__ク
 70
     0
 10
0.0
 20
0.0
 30
0.0
  3
-000-スカイマ__ク
  1

  0
ARC
  5
8889
330
8887
100
AcDbEntity
  8
_0-2_用紙フォ__マット_1_1_
  6
Continuous
 62
     7
100
AcDbCircle
 10
133.0680179709315
 20
-9.50051108164871
 30
0.0
 40
134.9691882094957
100
AcDbArc
 50
45.66362800001292
 51
224.512358045018
  0
LINE
  5
888A
330
8887
100
AcDbEntity
  8
_0-2_用紙フォ__マット_1_1_
  6
Continuous
 62
     7
100
AcDbLine
 10
-120.0898831957659
 20
249.5907783936423
 30
0.0
 11
386.2259191376289
 21
249.5907783936423
 31
0.0
  0
LINE
  5
888B
330
8887
100
AcDbEntity
  8
_0-2_用紙フォ__マット_1_1_
  6
Continuous
 62
     7
100
AcDbLine
 10
-120.0898831957659
 20
-268.5918005569408
 30
0.0
 11
-120.0898831957659
 21
249.5907783936423
 31
0.0
  0
ARC
  5
888C
330
8887
100
AcDbEntity
  8
_0-2_用紙フォ__マット_1_1_
  6
Continuous
 62
     7
100
AcDbCircle
 10
133.0680179709315
 20
-9.50051108164871
 30
0.0
 40
134.9691882094957
100
AcDbArc
 50
224.512358045018
 51
225.6636280000132
  0
LINE
  5
888D
330
8887
100
AcDbEntity
  8
_0-2_用紙フォ__マット_1_1_
  6
Continuous
 62
     7
100
AcDbLine
 10
-120.0898831957659
 20
239.5907783936423
 30
0.0
 11
376.4549267712164
 21
239.5907783936423
 31
0.0
  0
LINE
  5
888E
330
8887
100
AcDbEntity
  8
_0-2_用紙フォ__マット_1_1_
  6
Continuous
 62
     7
100
AcDbLine
 10
-120.0898831957659
 20
229.5907783936423
 30
0.0
 11
366.6839344048049
 21
229.5907783936423
 31
0.0
  0
LINE
  5
888F
330
8887
100
AcDbEntity
  8
_0-2_用紙フォ__マット_1_1_
  6
Continuous
 62
     7
100
AcDbLine
 10
-120.0898831957659
 20
219.5907783936423
 30
0.0
 11
356.9129420383922
 21
219.5907783936423
 31
0.0
  0
LINE
  5
8890
330
8887
100
AcDbEntity
  8
_0-2_用紙フォ__マット_1_1_
  6
Continuous
 62
     7
100
AcDbLine
 10
-120.0898831957659
 20
209.5907783936423
 30
0.0
 11
347.1419496719807
 21
209.5907783936423
 31
0.0
  0
LINE
  5
8891
330
8887
100
AcDbEntity
  8
_0-2_用紙フォ__マット_1_1_
  6
Continuous
 62
     7
100
AcDbLine
 10
-120.0898831957659
 20
199.5907783936423
 30
0.0
 11
337.370957305568
 21
199.5907783936423
 31
0.0
  0
LINE
  5
8892
330
8887
100
AcDbEntity
  8
_0-2_用紙フォ__マット_1_1_
  6
Continuous
 62
     7
100
AcDbLine
 10
-120.0898831957659
 20
189.5907783936422
 30
0.0
 11
327.5999649391554
 21
189.5907783936422
 31
0.0
  0
LINE
  5
8893
330
8887
100
AcDbEntity
  8
_0-2_用紙フォ__マット_1_1_
  6
Continuous
 62
     7
100
AcDbLine
 10
-120.0898831957659
 20
179.5907783936423
 30
0.0
 11
317.8289725727438
 21
179.5907783936423
 31
0.0
  0
LINE
  5
8894
330
8887
100
AcDbEntity
  8
_0-2_用紙フォ__マット_1_1_
  6
Continuous
 62
     7
100
AcDbLine
 10
-120.0898831957659
 20
169.5907783936422
 30
0.0
 11
308.0579802063312
 21
169.5907783936422
 31
0.0
  0
LINE
  5
8895
330
8887
100
AcDbEntity
  8
_0-2_用紙フォ__マット_1_1_
  6
Continuous
 62
     7
100
AcDbLine
 10
-120.0898831957659
 20
159.5907783936422
 30
0.0
 11
298.2869878399197
 21
159.5907783936422
 31
0.0
  0
LINE
  5
8896
330
8887
100
AcDbEntity
  8
_0-2_用紙フォ__マット_1_1_
  6
Continuous
 62
     7
100
AcDbLine
 10
-120.0898831957659
 20
149.5907783936423
 30
0.0
 11
288.5159954735071
 21
149.5907783936423
 31
0.0
  0
LINE
  5
8897
330
8887
100
AcDbEntity
  8
_0-2_用紙フォ__マット_1_1_
  6
Continuous
 62
     7
100
AcDbLine
 10
-120.0898831957659
 20
139.5907783936422
 30
0.0
 11
278.7450031070944
 21
139.5907783936422
 31
0.0
  0
LINE
  5
8898
330
8887
100
AcDbEntity
  8
_0-2_用紙フォ__マット_1_1_
  6
Continuous
 62
     7
100
AcDbLine
 10
-120.0898831957659
 20
129.5907783936423
 30
0.0
 11
268.9740107406828
 21
129.5907783936423
 31
0.0
  0
LINE
  5
8899
330
8887
100
AcDbEntity
  8
_0-2_用紙フォ__マット_1_1_
  6
Continuous
 62
     7
100
AcDbLine
 10
386.2259191376289
 20
249.5907783936423
 30
0.0
 11
227.3938635959212
 21
87.03609655017544
 31
0.0
  0
LINE
  5
889A
330
8887
100
AcDbEntity
  8
_0-2_用紙フォ__マット_1_1_
  6
Continuous
 62
     7
100
AcDbLine
 10
-120.0898831957659
 20
-110.4092216063577
 30
0.0
 11
34.47019394678705
 21
-110.4092216063577
 31
0.0
  0
LINE
  5
889B
330
8887
100
AcDbEntity
  8
_0-2_用紙フォ__マット_1_1_
  6
Continuous
 62
     7
100
AcDbLine
 10
-120.0898831957659
 20
-120.4092216063577
 30
0.0
 11
24.69920158037553
 21
-120.4092216063577
 31
0.0
  0
LINE
  5
889C
330
8887
100
AcDbEntity
  8
_0-2_用紙フォ__マット_1_1_
  6
Continuous
 62
     7
100
AcDbLine
 10
-120.0898831957659
 20
-130.4092216063577
 30
0.0
 11
14.92820921396287
 21
-130.4092216063577
 31
0.0
  0
LINE
  5
889D
330
8887
100
AcDbEntity
  8
_0-2_用紙フォ__マット_1_1_
  6
Continuous
 62
     7
100
AcDbLine
 10
-120.0898831957659
 20
-140.4092216063577
 30
0.0
 11
5.157216847551353
 21
-140.4092216063577
 31
0.0
  0
LINE
  5
889E
330
8887
100
AcDbEntity
  8
_0-2_用紙フォ__マット_1_1_
  6
Continuous
 62
     7
100
AcDbLine
 10
-120.0898831957659
 20
-150.4092216063576
 30
0.0
 11
-4.613775518861301
 21
-150.4092216063576
 31
0.0
  0
LINE
  5
889F
330
8887
100
AcDbEntity
  8
_0-2_用紙フォ__マット_1_1_
  6
Continuous
 62
     7
100
AcDbLine
 10
-120.0898831957659
 20
-160.4092216063577
 30
0.0
 11
-14.38476788527282
 21
-160.4092216063577
 31
0.0
  0
LINE
  5
88A0
330
8887
100
AcDbEntity
  8
_0-2_用紙フォ__マット_1_1_
  6
Continuous
 62
     7
100
AcDbLine
 10
-120.0898831957659
 20
-170.4092216063576
 30
0.0
 11
-24.15576025168548
 21
-170.4092216063576
 31
0.0
  0
LINE
  5
88A1
330
8887
100
AcDbEntity
  8
_0-2_用紙フォ__マット_1_1_
  6
Continuous
 62
     7
100
AcDbLine
 10
-120.0898831957659
 20
-180.4092216063576
 30
0.0
 11
-33.926752618097
 21
-180.4092216063576
 31
0.0
  0
LINE
  5
88A2
330
8887
100
AcDbEntity
  8
_0-2_用紙フォ__マット_1_1_
  6
Continuous
 62
     7
100
AcDbLine
 10
-120.0898831957659
 20
-190.4092216063576
 30
0.0
 11
-43.69774498450964
 21
-190.4092216063576
 31
0.0
  0
LINE
  5
88A3
330
8887
100
AcDbEntity
  8
_0-2_用紙フォ__マット_1_1_
  6
Continuous
 62
     7
100
AcDbLine
 10
-120.0898831957659
 20
-200.4092216063577
 30
0.0
 11
-53.46873735092231
 21
-200.4092216063577
 31
0.0
  0
LINE
  5
88A4
330
8887
100
AcDbEntity
  8
_0-2_用紙フォ__マット_1_1_
  6
Continuous
 62
     7
100
AcDbLine
 10
-120.0898831957659
 20
-210.4092216063577
 30
0.0
 11
-63.23972971733383
 21
-210.4092216063577
 31
0.0
  0
LINE
  5
88A5
330
8887
100
AcDbEntity
  8
_0-2_用紙フォ__マット_1_1_
  6
Continuous
 62
     7
100
AcDbLine
 10
-120.0898831957659
 20
-220.4092216063577
 30
0.0
 11
-73.01072208374648
 21
-220.4092216063577
 31
0.0
  0
LINE
  5
88A6
330
8887
100
AcDbEntity
  8
_0-2_用紙フォ__マット_1_1_
  6
Continuous
 62
     7
100
AcDbLine
 10
-120.0898831957659
 20
-230.4092216063577
 30
0.0
 11
-82.781714450158
 21
-230.4092216063577
 31
0.0
  0
LINE
  5
88A7
330
8887
100
AcDbEntity
  8
_0-2_用紙フォ__マット_1_1_
  6
Continuous
 62
     7
100
AcDbLine
 10
-120.0898831957659
 20
-240.4092216063578
 30
0.0
 11
-92.55270681657066
 21
-240.4092216063578
 31
0.0
  0
LINE
  5
88A8
330
8887
100
AcDbEntity
  8
_0-2_用紙フォ__マット_1_1_
  6
Continuous
 62
     7
100
AcDbLine
 10
-120.0898831957659
 20
-250.4092216063577
 30
0.0
 11
-102.3236991829822
 21
-250.4092216063577
 31
0.0
  0
LINE
  5
88A9
330
8887
100
AcDbEntity
  8
_0-2_用紙フォ__マット_1_1_
  6
Continuous
 62
     7
100
AcDbLine
 10
-120.0898831957659
 20
-260.4092216063577
 30
0.0
 11
-112.0946915493948
 21
-260.4092216063577
 31
0.0
  0
LINE
  5
88AA
330
8887
100
AcDbEntity
  8
_0-2_用紙フォ__マット_1_1_
  6
Continuous
 62
     7
100
AcDbLine
 10
38.76121358372757
 20
-106.0176311966768
 30
0.0
 11
-120.0898831957659
 21
-268.5918005569408
 31
0.0
  0
LINE
  5
88AB
330
8887
100
AcDbEntity
  8
_0-2_用紙フォ__マット_1_1_
  6
Continuous
 62
     7
100
AcDbLine
 10
-120.0898831957659
 20
-100.4092216063577
 30
0.0
 11
33.30686262144241
 21
-100.4092216063577
 31
0.0
  0
LINE
  5
88AC
330
8887
100
AcDbEntity
  8
_0-2_用紙フォ__マット_1_1_
  6
Continuous
 62
     7
100
AcDbLine
 10
-120.0898831957659
 20
-90.40922160635773
 30
0.0
 11
25.03810393246227
 21
-90.40922160635773
 31
0.0
  0
LINE
  5
88AD
330
8887
100
AcDbEntity
  8
_0-2_用紙フォ__マット_1_1_
  6
Continuous
 62
     7
100
AcDbLine
 10
-120.0898831957659
 20
-80.40922160635773
 30
0.0
 11
18.22622881013331
 21
-80.40922160635773
 31
0.0
  0
LINE
  5
88AE
330
8887
100
AcDbEntity
  8
_0-2_用紙フォ__マット_1_1_
  6
Continuous
 62
     7
100
AcDbLine
 10
-120.0898831957659
 20
-70.40922160635773
 30
0.0
 11
12.62379541066252
 21
-70.40922160635773
 31
0.0
  0
LINE
  5
88AF
330
8887
100
AcDbEntity
  8
_0-2_用紙フォ__マット_1_1_
  6
Continuous
 62
     7
100
AcDbLine
 10
-120.0898831957659
 20
-60.40922160635773
 30
0.0
 11
8.068078136379881
 21
-60.40922160635773
 31
0.0
  0
LINE
  5
88B0
330
8887
100
AcDbEntity
  8
_0-2_用紙フォ__マット_1_1_
  6
Continuous
 62
     7
100
AcDbLine
 10
-120.0898831957659
 20
-50.40922160635773
 30
0.0
 11
4.44780506045731
 21
-50.40922160635773
 31
0.0
  0
LINE
  5
88B1
330
8887
100
AcDbEntity
  8
_0-2_用紙フォ__マット_1_1_
  6
Continuous
 62
     7
100
AcDbLine
 10
-120.0898831957659
 20
-40.40922160635772
 30
0.0
 11
1.685624250806084
 21
-40.40922160635772
 31
0.0
  0
LINE
  5
88B2
330
8887
100
AcDbEntity
  8
_0-2_用紙フォ__マット_1_1_
  6
Continuous
 62
     7
100
AcDbLine
 10
-120.0898831957659
 20
-30.40922160635773
 30
0.0
 11
-0.2718020009137944
 21
-30.40922160635773
 31
0.0
  0
LINE
  5
88B3
330
8887
100
AcDbEntity
  8
_0-2_用紙フォ__マット_1_1_
  6
Continuous
 62
     7
100
AcDbLine
 10
-120.0898831957659
 20
-20.40922160635773
 30
0.0
 11
-1.459606703773488
 21
-20.40922160635773
 31
0.0
  0
LINE
  5
88B4
330
8887
100
AcDbEntity
  8
_0-2_用紙フォ__マット_1_1_
  6
Continuous
 62
     7
100
AcDbLine
 10
-120.0898831957659
 20
-10.40922160635773
 30
0.0
 11
-1.898111154537217
 21
-10.40922160635773
 31
0.0
  0
LINE
  5
88B5
330
8887
100
AcDbEntity
  8
_0-2_用紙フォ__マット_1_1_
  6
Continuous
 62
     7
100
AcDbLine
 10
-120.0898831957659
 20
-0.4092216063577327
 30
0.0
 11
-1.594635432329595
 21
-0.4092216063577327
 31
0.0
  0
LINE
  5
88B6
330
8887
100
AcDbEntity
  8
_0-2_用紙フォ__マット_1_1_
  6
Continuous
 62
     7
100
AcDbLine
 10
-120.0898831957659
 20
9.590778393642267
 30
0.0
 11
-0.5441238130435976
 21
9.590778393642267
 31
0.0
  0
LINE
  5
88B7
330
8887
100
AcDbEntity
  8
_0-2_用紙フォ__マット_1_1_
  6
Continuous
 62
     7
100
AcDbLine
 10
-120.0898831957659
 20
19.59077839364226
 30
0.0
 11
1.271285679895299
 21
19.59077839364226
 31
0.0
  0
LINE
  5
88B8
330
8887
100
AcDbEntity
  8
_0-2_用紙フォ__マット_1_1_
  6
Continuous
 62
     7
100
AcDbLine
 10
-120.0898831957659
 20
29.59077839364227
 30
0.0
 11
3.883836071253199
 21
29.59077839364227
 31
0.0
  0
LINE
  5
88B9
330
8887
100
AcDbEntity
  8
_0-2_用紙フォ__マット_1_1_
  6
Continuous
 62
     7
100
AcDbLine
 10
-120.0898831957659
 20
39.59077839364226
 30
0.0
 11
7.343211096617777
 21
39.59077839364226
 31
0.0
  0
LINE
  5
88BA
330
8887
100
AcDbEntity
  8
_0-2_用紙フォ__マット_1_1_
  6
Continuous
 62
     7
100
AcDbLine
 10
-120.0898831957659
 20
49.59077839364225
 30
0.0
 11
11.72181376957383
 21
49.59077839364225
 31
0.0
  0
LINE
  5
88BB
330
8887
100
AcDbEntity
  8
_0-2_用紙フォ__マット_1_1_
  6
Continuous
 62
     7
100
AcDbLine
 10
-120.0898831957659
 20
59.59077839364225
 30
0.0
 11
17.12374047276512
 21
59.59077839364225
 31
0.0
  0
LINE
  5
88BC
330
8887
100
AcDbEntity
  8
_0-2_用紙フォ__マット_1_1_
  6
Continuous
 62
     7
100
AcDbLine
 10
-120.0898831957659
 20
69.59077839364225
 30
0.0
 11
23.70051962217189
 21
69.59077839364225
 31
0.0
  0
LINE
  5
88BD
330
8887
100
AcDbEntity
  8
_0-2_用紙フォ__マット_1_1_
  6
Continuous
 62
     7
100
AcDbLine
 10
-120.0898831957659
 20
79.59077839364226
 30
0.0
 11
31.68052413880105
 21
79.59077839364226
 31
0.0
  0
LINE
  5
88BE
330
8887
100
AcDbEntity
  8
_0-2_用紙フォ__マット_1_1_
  6
Continuous
 62
     7
100
AcDbLine
 10
-120.0898831957659
 20
89.59077839364226
 30
0.0
 11
41.42960835981739
 21
89.59077839364226
 31
0.0
  0
LINE
  5
88BF
330
8887
100
AcDbEntity
  8
_0-2_用紙フォ__マット_1_1_
  6
Continuous
 62
     7
100
AcDbLine
 10
-120.0898831957659
 20
99.59077839364226
 30
0.0
 11
53.59618442879877
 21
99.59077839364226
 31
0.0
  0
LINE
  5
88C0
330
8887
100
AcDbEntity
  8
_0-2_用紙フォ__マット_1_1_
  6
Continuous
 62
     7
100
AcDbLine
 10
-120.0898831957659
 20
109.5907783936422
 30
0.0
 11
69.55466081637155
 21
109.5907783936422
 31
0.0
  0
LINE
  5
88C1
330
8887
100
AcDbEntity
  8
_0-2_用紙フォ__マット_1_1_
  6
Continuous
 62
     7
100
AcDbLine
 10
-120.0898831957659
 20
119.5907783936422
 30
0.0
 11
93.67105428669674
 21
119.5907783936422
 31
0.0
  0
LINE
  5
88C2
330
8887
100
AcDbEntity
  8
_0-2_用紙フォ__マット_1_1_
  6
Continuous
 62
     7
100
AcDbLine
 10
172.4649816551664
 20
119.5907783936422
 30
0.0
 11
259.2030183742702
 21
119.5907783936422
 31
0.0
  0
LINE
  5
88C3
330
8887
100
AcDbEntity
  8
_0-2_用紙フォ__マット_1_1_
  6
Continuous
 62
     7
100
AcDbLine
 10
196.5813751254916
 20
109.5907783936422
 30
0.0
 11
249.4320260078587
 21
109.5907783936422
 31
0.0
  0
LINE
  5
88C4
330
8887
100
AcDbEntity
  8
_0-2_用紙フォ__マット_1_1_
  6
Continuous
 62
     7
100
AcDbLine
 10
212.5398515130656
 20
99.59077839364226
 30
0.0
 11
239.661033641446
 21
99.59077839364226
 31
0.0
  0
ENDBLK
  5
88C5
330
8887
100
AcDbEntity
  8
0
100
AcDbBlockEnd
  0
BLOCK
  5
88C7
330
88C6
100
AcDbEntity
  8
0
100
AcDbBlockBegin
  2
A$C19575CB4
 70
     0
 10
0.0
 20
0.0
 30
0.0
  3
A$C19575CB4
  1

  0
INSERT
  5
88C8
330
88C6
100
AcDbEntity
  8
_0-2_用紙フォ__マット_1_1_
100
AcDbBlockReference
  2
-000-スカイマ__ク
 10
-26.61360359418632
 20
1.900102216329742
 30
0.0
 41
0.2000000000000455
 42
0.2000000000000455
  0
ENDBLK
  5
88C9
330
88C6
100
AcDbEntity
  8
0
100
AcDbBlockEnd
  0
ENDSEC
  0
SECTION
  2
ENTITIES
  0
LINE
  5
62F1A
330
1F
100
AcDbEntity
  8
0
  6
SLD-Solid
 62
     7
370
    30
100
AcDbLine
 10
11170.90692114502
 20
-16361.39312628551
 30
0.0
 11
11202.67040114455
 21
-16361.39312628551
 31
0.0
  0
LINE
  5
62F27
330
1F
100
AcDbEntity
  8
0
  6
SLD-Solid
 62
     7
370
    30
100
AcDbLine
 10
11780.76573713578
 20
-16361.39312628551
 30
0.0
 11
11813.52921713524
 21
-16361.39312628551
 31
0.0
  0
LINE
  5
633AD
330
1F
100
AcDbEntity
  8
0
  6
SLD-Solid
 62
     7
370
    30
100
AcDbLine
 10
11146.77429958063
 20
-16360.68162433353
 30
0.0
 11
11273.80968384063
 21
-16360.68162433353
 31
0.0
  0
ARC
  5
633AE
330
1F
100
AcDbEntity
  8
0
  6
SLD-Solid
 62
     7
370
    30
100
AcDbCircle
 10
11273.80968384063
 20
-16354.32892833363
 30
0.0
 40
6.352695999903144
100
AcDbArc
 50
270.0
 51
330.0939787031881
  0
LINE
  5
633AF
330
1F
100
AcDbEntity
  8
0
  6
SLD-Solid
 62
     7
370
    30
100
AcDbLine
 10
11308.47026413165
 20
-16331.47606019756
 30
0.0
 11
11279.31648252205
 21
-16357.49624813893
 31
0.0
  0
ARC
  5
633B0
330
1F
100
AcDbEntity
  8
0
  6
SLD-Solid
 62
     7
370
    30
100
AcDbCircle
 10
11307.14863244808
 20
-16330.71590344428
 30
0.0
 40
1.524647039976736
100
AcDbArc
 50
330.0939787031881
 51
0.0
  0
LINE
  5
633B1
330
1F
100
AcDbEntity
  8
0
  6
SLD-Solid
 62
     7
370
    30
100
AcDbLine
 10
11308.67327948808
 20
-16314.65628795653
 30
0.0
 11
11308.67327948808
 21
-16330.71590344428
 31
0.0
  0
ARC
  5
633B2
330
1F
100
AcDbEntity
  8
0
  6
SLD-Solid
 62
     7
370
    30
100
AcDbCircle
 10
11314.21283039999
 20
-16314.65628795653
 30
0.0
 40
5.539550911915631
100
AcDbArc
 50
108.1753751070782
 51
180.0
  0
LINE
  5
633B3
330
1F
100
AcDbEntity
  8
0
  6
SLD-Solid
 62
     7
370
    30
100
AcDbLine
 10
11312.48489708805
 20
-16310.1480396017
 30
0.0
 11
11312.48489708805
 21
-16309.39312628553
 31
0.0
  0
ARC
  5
633B4
330
1F
100
AcDbEntity
  8
0
  6
SLD-Solid
 62
     7
370
    30
100
AcDbCircle
 10
11314.21283039999
 20
-16314.65628795653
 30
0.0
 40
4.828048959926511
100
AcDbArc
 50
110.9709607723353
 51
180.0
  0
LINE
  5
633B5
330
1F
100
AcDbEntity
  8
0
  6
SLD-Solid
 62
     7
370
    30
100
AcDbLine
 10
11309.38478144006
 20
-16314.65628795653
 30
0.0
 11
11309.38478144006
 21
-16330.71590344428
 31
0.0
  0
ARC
  5
633B6
330
1F
100
AcDbEntity
  8
0
  6
SLD-Solid
 62
     7
370
    30
100
AcDbCircle
 10
11307.14863244808
 20
-16330.71590344428
 30
0.0
 40
2.236148991965936
100
AcDbArc
 50
330.0939787031881
 51
0.0
  0
LINE
  5
633B7
330
1F
100
AcDbEntity
  8
0
  6
SLD-Solid
 62
     7
370
    30
100
AcDbLine
 10
11309.08702558398
 20
-16331.83080001575
 30
0.0
 11
11279.93324397438
 21
-16357.85098795714
 31
0.0
  0
ARC
  5
633B8
330
1F
100
AcDbEntity
  8
0
  6
SLD-Solid
 62
     7
370
    30
100
AcDbCircle
 10
11273.80968384063
 20
-16354.32892833363
 30
0.0
 40
7.064197951892309
100
AcDbArc
 50
270.0
 51
330.0939787031881
  0
LINE
  5
633B9
330
1F
100
AcDbEntity
  8
0
  6
SLD-Solid
 62
     7
370
    30
100
AcDbLine
 10
11146.77429958063
 20
-16361.39312628551
 30
0.0
 11
11273.80968384063
 21
-16361.39312628551
 31
0.0
  0
ARC
  5
633BA
330
1F
100
AcDbEntity
  8
0
  6
SLD-Solid
 62
     7
370
    30
100
AcDbCircle
 10
11146.77429958063
 20
-16362.66366548551
 30
0.0
 40
1.270539199980737
100
AcDbArc
 50
90.0
 51
180.0
  0
LINE
  5
633BB
330
1F
100
AcDbEntity
  8
0
  6
SLD-Solid
 62
     7
370
    30
100
AcDbLine
 10
11145.50376038062
 20
-16362.66366548551
 30
0.0
 11
11145.50377410281
 21
-16462.2147022784
 31
0.0
  0
LINE
  5
633BC
330
1F
100
AcDbEntity
  8
0
  6
SLD-Solid
 62
     7
370
    30
100
AcDbLine
 10
11144.7922695283
 20
-16462.2147022784
 30
0.0
 11
11145.50377410281
 21
-16462.2147022784
 31
0.0
  0
LINE
  5
633BD
330
1F
100
AcDbEntity
  8
0
  6
SLD-Solid
 62
     7
370
    30
100
AcDbLine
 10
11144.79225842864
 20
-16362.66366548551
 30
0.0
 11
11144.7922695283
 21
-16462.2147022784
 31
0.0
  0
ARC
  5
633BE
330
1F
100
AcDbEntity
  8
0
  6
SLD-Solid
 62
     7
370
    30
100
AcDbCircle
 10
11146.77429958063
 20
-16362.66366548551
 30
0.0
 40
1.982041151969855
100
AcDbArc
 50
90.0
 51
180.0
  0
ARC
  5
633BF
330
1F
100
AcDbEntity
  8
0
  6
SLD-Solid
 62
     7
370
    30
100
AcDbCircle
 10
11711.16011033541
 20
-16354.32892833363
 30
0.0
 40
6.352695999903287
100
AcDbArc
 50
209.906021296812
 51
270.0
  0
ARC
  5
633C0
330
1F
100
AcDbEntity
  8
0
  6
SLD-Solid
 62
     7
370
    30
100
AcDbCircle
 10
11711.16011033541
 20
-16354.32892833363
 30
0.0
 40
7.064197951892464
100
AcDbArc
 50
209.906021296812
 51
270.0
  0
LINE
  5
633C3
330
1F
100
AcDbEntity
  8
0
  6
SLD-Solid
 62
     7
370
    30
100
AcDbLine
 10
11705.65331165393
 20
-16357.49624813893
 30
0.0
 11
11676.49953004438
 21
-16331.47606019756
 31
0.0
  0
LINE
  5
633C4
330
1F
100
AcDbEntity
  8
0
  6
SLD-Solid
 62
     7
370
    30
100
AcDbLine
 10
11705.03655020166
 20
-16357.85098795714
 30
0.0
 11
11675.88276859206
 21
-16331.83080001575
 31
0.0
  0
ARC
  5
633C5
330
1F
100
AcDbEntity
  8
0
  6
SLD-Solid
 62
     7
370
    30
100
AcDbCircle
 10
11677.8211617279
 20
-16330.71590344428
 30
0.0
 40
1.524647039977174
100
AcDbArc
 50
180.0
 51
209.906021296812
  0
ARC
  5
633C6
330
1F
100
AcDbEntity
  8
0
  6
SLD-Solid
 62
     7
370
    30
100
AcDbCircle
 10
11670.75696377604
 20
-16314.65628795653
 30
0.0
 40
5.539550911915631
100
AcDbArc
 50
0.0
 51
71.82462489292176
  0
LINE
  5
633C7
330
1F
100
AcDbEntity
  8
0
  6
SLD-Solid
 62
     7
370
    30
100
AcDbLine
 10
11676.29651468796
 20
-16330.71590344428
 30
0.0
 11
11676.29651468796
 21
-16314.65628795653
 31
0.0
  0
ARC
  5
633C8
330
1F
100
AcDbEntity
  8
0
  6
SLD-Solid
 62
     7
370
    30
100
AcDbCircle
 10
11677.8211617279
 20
-16330.71590344428
 30
0.0
 40
2.236148991966111
100
AcDbArc
 50
180.0
 51
209.906021296812
  0
ARC
  5
633C9
330
1F
100
AcDbEntity
  8
0
  6
SLD-Solid
 62
     7
370
    30
100
AcDbCircle
 10
11670.75696377604
 20
-16314.65628795653
 30
0.0
 40
4.828048959926332
100
AcDbArc
 50
0.0
 51
69.02903922766471
  0
LINE
  5
633CC
330
1F
100
AcDbEntity
  8
0
  6
SLD-Solid
 62
     7
370
    30
100
AcDbLine
 10
11675.58501273597
 20
-16330.71590344428
 30
0.0
 11
11675.58501273597
 21
-16314.65628795653
 31
0.0
  0
LINE
  5
633CD
330
1F
100
AcDbEntity
  8
0
  6
SLD-Solid
 62
     7
370
    30
100
AcDbLine
 10
11672.48489708804
 20
-16309.39312628553
 30
0.0
 11
11672.48489708804
 21
-16310.1480396017
 31
0.0
  0
LINE
  5
633CE
330
1F
100
AcDbEntity
  8
0
  6
SLD-Solid
 62
     7
370
    30
100
AcDbLine
 10
11838.9323844884
 20
-16462.2147022784
 30
0.0
 11
11838.9323778997
 21
-16362.66366548551
 31
0.0
  0
ARC
  5
633CF
330
1F
100
AcDbEntity
  8
0
  6
SLD-Solid
 62
     7
370
    30
100
AcDbCircle
 10
11837.66183869969
 20
-16362.66366548551
 30
0.0
 40
1.270539199980555
100
AcDbArc
 50
0.0
 51
90.0
  0
ARC
  5
633D0
330
1F
100
AcDbEntity
  8
0
  6
SLD-Solid
 62
     7
370
    30
100
AcDbCircle
 10
11837.66183869969
 20
-16362.66366548551
 30
0.0
 40
1.982041151969855
100
AcDbArc
 50
0.0
 51
90.0
  0
LINE
  5
633D1
330
1F
100
AcDbEntity
  8
0
  6
SLD-Solid
 62
     7
370
    30
100
AcDbLine
 10
11839.64387415555
 20
-16462.2147022784
 30
0.0
 11
11839.64387985169
 21
-16362.66366548551
 31
0.0
  0
LINE
  5
633D2
330
1F
100
AcDbEntity
  8
0
  6
SLD-Solid
 62
     7
370
    30
100
AcDbLine
 10
11838.9323844884
 20
-16462.2147022784
 30
0.0
 11
11839.64387415555
 21
-16462.2147022784
 31
0.0
  0
LINE
  5
633D3
330
1F
100
AcDbEntity
  8
0
  6
SLD-Solid
 62
     7
370
    30
100
AcDbLine
 10
11711.16011033541
 20
-16361.39312628551
 30
0.0
 11
11837.66183869969
 21
-16361.39312628551
 31
0.0
  0
LINE
  5
633D4
330
1F
100
AcDbEntity
  8
0
  6
SLD-Solid
 62
     7
370
    30
100
AcDbLine
 10
11711.16011033541
 20
-16360.68162433353
 30
0.0
 11
11837.66183869969
 21
-16360.68162433353
 31
0.0
  0
LINE
  5
6742B
330
1F
100
AcDbEntity
  8
0
  6
SLD-Solid
 62
     7
370
    30
100
AcDbLine
 10
11838.19548136263
 20
-15167.35388737763
 30
0.0
 11
11840.17752130176
 21
-15167.35388737763
 31
0.0
  0
LINE
  5
6742C
330
1F
100
AcDbEntity
  8
0
  6
SLD-Solid
 62
     7
370
    30
100
AcDbLine
 10
11840.17752130176
 20
-15853.47945368982
 30
0.0
 11
11840.17752130176
 21
-15167.35388737763
 31
0.0
  0
LINE
  5
6742D
330
1F
100
AcDbEntity
  8
0
  6
SLD-Solid
 62
     7
370
    30
100
AcDbLine
 10
11840.17752130176
 20
-15853.47945368982
 30
0.0
 11
11838.19548136263
 21
-15853.47945368982
 31
0.0
  0
LINE
  5
6742E
330
1F
100
AcDbEntity
  8
0
  6
SLD-Solid
 62
     7
370
    30
100
AcDbLine
 10
11838.19548136263
 20
-15853.47945368982
 30
0.0
 11
11838.19548136263
 21
-15167.35388737763
 31
0.0
  0
LINE
  5
6742F
330
1F
100
AcDbEntity
  8
0
  6
SLD-Solid
 62
     7
370
    30
100
AcDbLine
 10
11146.77432818269
 20
-15164.97292306671
 30
0.0
 11
11146.77432818269
 21
-15167.35388737763
 31
0.0
  0
LINE
  5
67430
330
1F
100
AcDbEntity
  8
0
  6
SLD-Solid
 62
     7
370
    30
100
AcDbLine
 10
11838.19548136263
 20
-15164.97292306671
 30
0.0
 11
11146.77432818269
 21
-15164.97292306671
 31
0.0
  0
LINE
  5
67431
330
1F
100
AcDbEntity
  8
0
  6
SLD-Solid
 62
     7
370
    30
100
AcDbLine
 10
11838.19548136263
 20
-15164.97292306671
 30
0.0
 11
11838.19548136263
 21
-15167.35388737763
 31
0.0
  0
LINE
  5
67432
330
1F
100
AcDbEntity
  8
0
  6
SLD-Solid
 62
     7
370
    30
100
AcDbLine
 10
11838.19548136263
 20
-15855.8604478157
 30
0.0
 11
11838.19548136263
 21
-15853.47945368982
 31
0.0
  0
LINE
  5
67433
330
1F
100
AcDbEntity
  8
0
  6
SLD-Solid
 62
     7
370
    30
100
AcDbLine
 10
11146.77432818269
 20
-15855.8604478157
 30
0.0
 11
11838.19548136263
 21
-15855.8604478157
 31
0.0
  0
LINE
  5
67434
330
1F
100
AcDbEntity
  8
0
  6
SLD-Solid
 62
     7
370
    30
100
AcDbLine
 10
11146.77432818269
 20
-15855.8604478157
 30
0.0
 11
11146.77432818269
 21
-15853.47945368982
 31
0.0
  0
LINE
  5
67435
330
1F
100
AcDbEntity
  8
0
  6
SLD-Solid
 62
     7
370
    30
100
AcDbLine
 10
11146.77432818269
 20
-15167.35388737763
 30
0.0
 11
11146.77432818269
 21
-15853.47945368982
 31
0.0
  0
LINE
  5
67436
330
1F
100
AcDbEntity
  8
0
  6
SLD-Solid
 62
     7
370
    30
100
AcDbLine
 10
11146.77432818269
 20
-15853.47945368982
 30
0.0
 11
11144.79225842864
 21
-15853.47945368982
 31
0.0
  0
LINE
  5
67437
330
1F
100
AcDbEntity
  8
0
  6
SLD-Solid
 62
     7
370
    30
100
AcDbLine
 10
11144.79225842864
 20
-15167.35388737763
 30
0.0
 11
11144.79225842864
 21
-15853.47945368982
 31
0.0
  0
LINE
  5
67438
330
1F
100
AcDbEntity
  8
0
  6
SLD-Solid
 62
     7
370
    30
100
AcDbLine
 10
11144.79225842864
 20
-15167.35388737763
 30
0.0
 11
11146.77432818269
 21
-15167.35388737763
 31
0.0
  0
LINE
  5
67439
330
1F
100
AcDbEntity
  8
0
  6
SLD-Solid
 62
     7
370
    30
100
AcDbLine
 10
11838.19548136263
 20
-15162.99088312758
 30
0.0
 11
11146.77432818269
 21
-15162.99088312758
 31
0.0
  0
LINE
  5
6743A
330
1F
100
AcDbEntity
  8
0
  6
SLD-Solid
 62
     7
370
    30
100
AcDbLine
 10
11146.77432818269
 20
-15164.97292306671
 30
0.0
 11
11146.77432818269
 21
-15162.99088312758
 31
0.0
  0
LINE
  5
6743B
330
1F
100
AcDbEntity
  8
0
  6
SLD-Solid
 62
     7
370
    30
100
AcDbLine
 10
11838.19548136263
 20
-15162.99088312758
 30
0.0
 11
11838.19548136263
 21
-15164.97292306671
 31
0.0
  0
LINE
  5
6743C
330
1F
100
AcDbEntity
  8
0
  6
SLD-Solid
 62
     7
370
    30
100
AcDbLine
 10
11838.19548136263
 20
-15855.8604478157
 30
0.0
 11
11838.19548136263
 21
-15857.84248775484
 31
0.0
  0
LINE
  5
6743D
330
1F
100
AcDbEntity
  8
0
  6
SLD-Solid
 62
     7
370
    30
100
AcDbLine
 10
11146.77432818269
 20
-15857.84248775484
 30
0.0
 11
11838.19548136263
 21
-15857.84248775484
 31
0.0
  0
LINE
  5
6743E
330
1F
100
AcDbEntity
  8
0
  6
SLD-Solid
 62
     7
370
    30
100
AcDbLine
 10
11146.77432818269
 20
-15857.84248775484
 30
0.0
 11
11146.77432818269
 21
-15855.8604478157
 31
0.0
  0
LINE
  5
6743F
330
1F
100
AcDbEntity
  8
0
  6
SLD-Solid
 62
     7
370
    30
100
AcDbLine
 10
11839.46601672719
 20
-15165.73523235948
 30
0.0
 11
11839.46601672719
 21
-15167.35388737763
 31
0.0
  0
LINE
  5
67440
330
1F
100
AcDbEntity
  8
0
  6
SLD-Solid
 62
     7
370
    30
100
AcDbLine
 10
11839.46601672719
 20
-15165.73523235948
 30
0.0
 11
11840.17752130176
 21
-15165.73523235948
 31
0.0
  0
LINE
  5
67441
330
1F
100
AcDbEntity
  8
0
  6
SLD-Solid
 62
     7
370
    30
100
AcDbLine
 10
11840.17752130176
 20
-15165.73523235948
 30
0.0
 11
11840.17752130176
 21
-15167.35388737763
 31
0.0
  0
ARC
  5
67442
330
1F
100
AcDbEntity
  8
0
  6
SLD-Solid
 62
     7
370
    30
100
AcDbCircle
 10
11838.19547682261
 20
-15165.73523689952
 30
0.0
 40
1.982044479176855
100
AcDbArc
 50
0.0
 51
89.99986875952947
  0
ARC
  5
67443
330
1F
100
AcDbEntity
  8
0
  6
SLD-Solid
 62
     7
370
    30
100
AcDbCircle
 10
11838.19551715514
 20
-15165.73519656699
 30
0.0
 40
1.270499572590082
100
AcDbArc
 50
0.0
 51
90.00161413588889
  0
LINE
  5
67444
330
1F
100
AcDbEntity
  8
0
  6
SLD-Solid
 62
     7
370
    30
100
AcDbLine
 10
11145.50376300315
 20
-15165.73523235948
 30
0.0
 11
11144.79225842864
 21
-15165.73523235948
 31
0.0
  0
ARC
  5
67445
330
1F
100
AcDbEntity
  8
0
  6
SLD-Solid
 62
     7
370
    30
100
AcDbCircle
 10
11146.77430290807
 20
-15165.73523689963
 30
0.0
 40
1.982044479443125
100
AcDbArc
 50
89.99926937434347
 51
180.0
  0
ARC
  5
67446
330
1F
100
AcDbEntity
  8
0
  6
SLD-Solid
 62
     7
370
    30
100
AcDbCircle
 10
11146.7743134712
 20
-15165.73524746291
 30
0.0
 40
1.270550468091913
100
AcDbArc
 50
89.9993365788463
 51
180.0
  0
LINE
  5
67447
330
1F
100
AcDbEntity
  8
0
  6
SLD-Solid
 62
     7
370
    30
100
AcDbLine
 10
11145.50376300315
 20
-15165.73523235948
 30
0.0
 11
11145.50376300315
 21
-15167.35388737763
 31
0.0
  0
LINE
  5
67448
330
1F
100
AcDbEntity
  8
0
  6
SLD-Solid
 62
     7
370
    30
100
AcDbLine
 10
11144.79225842864
 20
-15165.73523235948
 30
0.0
 11
11144.79225842864
 21
-15167.35388737763
 31
0.0
  0
LINE
  5
67449
330
1F
100
AcDbEntity
  8
0
  6
SLD-Solid
 62
     7
370
    30
100
AcDbLine
 10
11839.46601672719
 20
-15855.09813852293
 30
0.0
 11
11840.17752130176
 21
-15855.09813852293
 31
0.0
  0
ARC
  5
6744A
330
1F
100
AcDbEntity
  8
0
  6
SLD-Solid
 62
     7
370
    30
100
AcDbCircle
 10
11838.1954662592
 20
-15855.09812341951
 30
0.0
 40
1.270550468099767
100
AcDbArc
 50
270.0006810927153
 51
0.0
  0
ARC
  5
6744B
330
1F
100
AcDbEntity
  8
0
  6
SLD-Solid
 62
     7
370
    30
100
AcDbCircle
 10
11838.19547682261
 20
-15855.09813398291
 30
0.0
 40
1.982044479176766
100
AcDbArc
 50
270.0001312404705
 51
0.0
  0
LINE
  5
6744C
330
1F
100
AcDbEntity
  8
0
  6
SLD-Solid
 62
     7
370
    30
100
AcDbLine
 10
11840.17752130176
 20
-15855.09813852293
 30
0.0
 11
11840.17752130176
 21
-15853.47945368982
 31
0.0
  0
LINE
  5
6744D
330
1F
100
AcDbEntity
  8
0
  6
SLD-Solid
 62
     7
370
    30
100
AcDbLine
 10
11839.46601672719
 20
-15855.09813852293
 30
0.0
 11
11839.46601672719
 21
-15853.47945368982
 31
0.0
  0
LINE
  5
6744E
330
1F
100
AcDbEntity
  8
0
  6
SLD-Solid
 62
     7
370
    30
100
AcDbLine
 10
11145.50376300315
 20
-15855.09813852293
 30
0.0
 11
11144.79225842864
 21
-15855.09813852293
 31
0.0
  0
LINE
  5
6744F
330
1F
100
AcDbEntity
  8
0
  6
SLD-Solid
 62
     7
370
    30
100
AcDbLine
 10
11145.50376300315
 20
-15855.09813852293
 30
0.0
 11
11145.50376300315
 21
-15853.47945368982
 31
0.0
  0
LINE
  5
67450
330
1F
100
AcDbEntity
  8
0
  6
SLD-Solid
 62
     7
370
    30
100
AcDbLine
 10
11144.79225842864
 20
-15855.09813852293
 30
0.0
 11
11144.79225842864
 21
-15853.47945368982
 31
0.0
  0
ARC
  5
67451
330
1F
100
AcDbEntity
  8
0
  6
SLD-Solid
 62
     7
370
    30
100
AcDbCircle
 10
11146.77436437082
 20
-15855.09807251867
 30
0.0
 40
1.27060136936878
100
AcDbArc
 50
180.0
 51
269.9983681544309
  0
ARC
  5
67452
330
1F
100
AcDbEntity
  8
0
  6
SLD-Solid
 62
     7
370
    30
100
AcDbCircle
 10
11146.77430290807
 20
-15855.0981339828
 30
0.0
 40
1.982044479443034
100
AcDbArc
 50
180.0
 51
270.0007306256565
  0
TEXT
  5
6745F
330
1F
100
AcDbEntity
  8
__
 62
     7
100
AcDbText
 10
12605.62619553451
 20
-16853.35094973784
 30
0.0
 40
17.21996527777865
  1
1/10
  7
________
100
AcDbText
  0
LINE
  5
67461
330
1F
100
AcDbEntity
  8
__
  6
Continuous
 62
     6
100
AcDbLine
 10
10051.90278430509
 20
-16765.95833887675
 30
0.0
 11
12895.45278430524
 21
-16765.95833887675
 31
0.0
  0
LINE
  5
67462
330
1F
100
AcDbEntity
  8
__
  6
Continuous
 62
     6
100
AcDbLine
 10
10002.20278430509
 20
-16765.95833887675
 30
0.0
 11
12895.45278430524
 21
-16765.95833887675
 31
0.0
  0
LINE
  5
67463
330
1F
100
AcDbEntity
  8
__
  6
Continuous
 62
     6
100
AcDbLine
 10
12895.45278430524
 20
-16765.95833887675
 30
0.0
 11
12895.45278430524
 21
-16857.98853887675
 31
0.0
  0
LINE
  5
67464
330
1F
100
AcDbEntity
  8
__
  6
Continuous
 62
     6
100
AcDbLine
 10
10716.46278430513
 20
-16765.95833887675
 30
0.0
 11
10716.46278430513
 21
-16857.98853887675
 31
0.0
  0
TEXT
  5
67465
330
1F
100
AcDbEntity
  8
__
 62
     7
100
AcDbText
 10
12757.35778430523
 20
-16787.14592221008
 30
0.0
 40
10.76247829861166
  1
No.
  7
ARIAL
100
AcDbText
  0
LINE
  5
67466
330
1F
100
AcDbEntity
  8
__
  6
Continuous
 62
     7
100
AcDbLine
 10
12575.95278430522
 20
-16765.95833887675
 30
0.0
 11
12575.95278430522
 21
-16857.98853887675
 31
0.0
  0
TEXT
  5
67467
330
1F
100
AcDbEntity
  8
__
 62
     7
100
AcDbText
 10
12578.21117625854
 20
-16823.94463054342
 30
0.0
 40
10.76247829861166
  1
SCALE
  7
ARIAL
100
AcDbText
  0
LINE
  5
67468
330
1F
100
AcDbEntity
  8
__
  6
Continuous
 62
     6
100
AcDbLine
 10
12753.45278430523
 20
-16765.95833887675
 30
0.0
 11
12753.45278430523
 21
-16857.98853887675
 31
0.0
  0
LINE
  5
67469
330
1F
100
AcDbEntity
  8
__
  6
Continuous
 62
     6
100
AcDbLine
 10
12220.9527843052
 20
-16765.95833887675
 30
0.0
 11
12220.9527843052
 21
-16857.98853887675
 31
0.0
  0
TEXT
  5
6746A
330
1F
100
AcDbEntity
  8
__
 62
     7
100
AcDbText
 10
12578.41767064832
 20
-16785.35456858528
 30
0.0
 40
10.76247829861166
  1
Date
  7
ARIAL
100
AcDbText
  0
LINE
  5
6746B
330
1F
100
AcDbEntity
  8
__
 62
     7
100
AcDbLine
 10
12575.95278430522
 20
-16804.87343887675
 30
0.0
 11
12753.45278430523
 21
-16804.87343887675
 31
0.0
  0
TEXT
  5
6746C
330
1F
100
AcDbEntity
  8
__
 62
     7
100
AcDbText
 10
12225.01457842028
 20
-16790.21963054342
 30
0.0
 40
10.76247829861166
  1
Drawing Title
  7
ARIAL
100
AcDbText
  0
LINE
  5
6746D
330
1F
100
AcDbEntity
  8
__
 62
     4
100
AcDbLine
 10
10717.44483146028
 20
-16811.97343887675
 30
0.0
 11
11716.85278430518
 21
-16811.97343887675
 31
0.0
  0
LINE
  5
6746E
330
1F
100
AcDbEntity
  8
__
 62
     4
100
AcDbLine
 10
10716.56189121752
 20
-16788.96588887674
 30
0.0
 11
11716.85278430518
 21
-16788.96588887674
 31
0.0
  0
LINE
  5
6746F
330
1F
100
AcDbEntity
  8
__
 62
     4
100
AcDbLine
 10
10716.56189121752
 20
-16834.98098887675
 30
0.0
 11
11716.85278430518
 21
-16834.98098887675
 31
0.0
  0
TEXT
  5
67470
330
1F
100
AcDbEntity
  8
__
 62
     7
100
AcDbText
 10
10722.48922196386
 20
-16785.71772773874
 30
0.0
 40
10.05499252870934
  1
Memo
  7
ARIAL
100
AcDbText
  0
LINE
  5
67471
330
1F
100
AcDbEntity
  8
__
  6
Continuous
 62
     6
100
AcDbLine
 10
11716.85278430518
 20
-16765.95833887675
 30
0.0
 11
11716.85278430518
 21
-16857.98853887675
 31
0.0
  0
TEXT
  5
67472
330
1F
100
AcDbEntity
  8
__
 62
     7
100
AcDbText
 10
11722.87922196391
 20
-16785.35456858528
 30
0.0
 40
10.27098263921521
  1
Project
  7
ARIAL
100
AcDbText
  0
TEXT
  5
67473
330
1F
100
AcDbEntity
  8
__
 62
     7
100
AcDbText
 10
11764.00786741876
 20
-16829.18842941066
 30
0.0
 40
19.41019245038523
  1
SLT　CAD部品図面
  7
________-B
100
AcDbText
  0
TEXT
  5
67474
330
1F
100
AcDbEntity
  8
__
 62
     7
100
AcDbText
 10
12615.01856112753
 20
-16802.46784072768
 30
0.0
 40
15.49796875000079
  1
14/11/23
  7
________
100
AcDbText
  0
TEXT
  5
67475
330
1F
100
AcDbEntity
  8
__
 62
     7
100
AcDbText
 10
12278.02054962001
 20
-16836.16147678267
 30
0.0
 40
19.81103751864315
  1
ＲＢ-290-3-Ｎ
  7
________-B
100
AcDbText
  0
TEXT
  5
67477
330
1F
100
AcDbEntity
  8
__
 62
     4
100
AcDbText
 10
10170.73902670742
 20
-16833.19392751197
 30
0.0
 40
18.94196180555652
  1
ス カ イ ラ イ ト チ ュ ー ブ
  7
________
100
AcDbText
  0
LINE
  5
67480
330
1F
100
AcDbEntity
  8
0
  6
STYLE_07
 62
     1
100
AcDbLine
 10
11492.48489708805
 20
-14986.52093835763
 30
0.0
 11
11492.48489708805
 21
-16588.04915146335
 31
0.0
  0
LINE
  5
67481
330
1F
100
AcDbEntity
  8
0
  6
STYLE_07
 62
     1
100
AcDbLine
 10
10968.58915860201
 20
-15510.41667684366
 30
0.0
 11
12016.38063557408
 21
-15510.41667684367
 31
0.0
  0
LINE
  5
674DD
330
1F
100
AcDbEntity
  8
0
 62
     5
100
AcDbLine
 10
11312.48489708805
 20
-16309.39312628552
 30
0.0
 11
11672.48489708801
 21
-16309.39312628553
 31
0.0
  0
LINE
  5
674DE
330
1F
100
AcDbEntity
  8
0
 62
     5
100
AcDbLine
 10
11312.48489708803
 20
-16310.1480396017
 30
0.0
 11
11672.48489708799
 21
-16310.14803960171
 31
0.0
  0
LINE
  5
674DF
330
1F
100
AcDbEntity
  8
0
 62
     5
100
AcDbLine
 10
11273.80968384063
 20
-16361.39312628553
 30
0.0
 11
11710.16550864063
 21
-16361.39312628553
 31
0.0
  0
LINE
  5
674E0
330
1F
100
AcDbEntity
  8
0
 62
     5
100
AcDbLine
 10
11145.50377410281
 20
-16462.2147022784
 30
0.0
 11
11838.9323844884
 21
-16462.2147022784
 31
0.0
  0
CIRCLE
  5
67536
330
1F
100
AcDbEntity
  8
0
100
AcDbCircle
 10
11492.48489708805
 20
-15510.41667684367
 30
0.0
 40
217.5798527125571
  0
CIRCLE
  5
67539
330
1F
100
AcDbEntity
  8
0
100
AcDbCircle
 10
11492.48489708805
 20
-15510.41667684367
 30
0.0
 40
178.9046394651395
  0
CIRCLE
  5
6753A
330
1F
100
AcDbEntity
  8
0
100
AcDbCircle
 10
11492.48489708805
 20
-15510.41667684367
 30
0.0
 40
182.716257065107
  0
LINE
  5
7A82F
330
1F
100
AcDbEntity
  8
0
 62
     5
100
AcDbLine
 10
11144.79225842864
 20
-16501.73346505536
 30
0.0
 11
11144.79225842864
 21
-16621.18812066516
 31
0.0
  0
LINE
  5
7A830
330
1F
100
AcDbEntity
  8
0
 62
     5
100
AcDbLine
 10
11840.17752130176
 20
-16501.73346505536
 30
0.0
 11
11840.17752130176
 21
-16621.18812066516
 31
0.0
  0
LINE
  5
7A831
330
1F
100
AcDbEntity
  8
0
 62
     5
100
AcDbLine
 10
11154.79225842864
 20
-16621.18812066516
 30
0.0
 11
11830.17752130176
 21
-16621.18812066516
 31
0.0
  0
INSERT
  5
7A832
330
1F
100
AcDbEntity
  8
0
 62
     5
100
AcDbBlockReference
  2
_Origin
 10
11144.79225842864
 20
-16621.18812066516
 30
0.0
 41
10.0
 42
10.0
 43
10.0
 50
180.0
  0
INSERT
  5
7A833
330
1F
100
AcDbEntity
  8
0
 62
     5
100
AcDbBlockReference
  2
_Origin
 10
11840.17752130176
 20
-16621.18812066516
 30
0.0
 41
10.0
 42
10.0
 43
10.0
  0
MTEXT
  5
7A834
330
1F
100
AcDbEntity
  8
0
100
AcDbMText
 10
11465.98794900864
 20
-16594.93047280657
 30
0.0
 40
25.0
 41
0.0
 71
     1
 72
     1
  1
\A1;695
 73
     1
 44
1.0
1001
ACAD
1000
MTEXTBEGIN
1070
    73
1070
     1
1070
    44
1040
1.0
1070
    74
1070
     0
1000
MTEXTEND
  0
LINE
  5
7A835
330
1F
100
AcDbEntity
  8
0
 62
     5
100
AcDbLine
 10
11312.48489708805
 20
-16196.07150214183
 30
0.0
 11
11312.48489708805
 21
-16131.7297754438
 31
0.0
  0
LINE
  5
7A836
330
1F
100
AcDbEntity
  8
0
 62
     5
100
AcDbLine
 10
11672.48489708801
 20
-16196.07150214183
 30
0.0
 11
11672.48489708801
 21
-16131.7297754438
 31
0.0
  0
LINE
  5
7A837
330
1F
100
AcDbEntity
  8
0
 62
     5
100
AcDbLine
 10
11322.48489708805
 20
-16131.7297754438
 30
0.0
 11
11662.48489708801
 21
-16131.7297754438
 31
0.0
  0
INSERT
  5
7A838
330
1F
100
AcDbEntity
  8
0
 62
     5
100
AcDbBlockReference
  2
_Origin
 10
11312.48489708805
 20
-16131.7297754438
 30
0.0
 41
10.0
 42
10.0
 43
10.0
 50
180.0
  0
INSERT
  5
7A839
330
1F
100
AcDbEntity
  8
0
 62
     5
100
AcDbBlockReference
  2
_Origin
 10
11672.48489708801
 20
-16131.7297754438
 30
0.0
 41
10.0
 42
10.0
 43
10.0
  0
MTEXT
  5
7A83A
330
1F
100
AcDbEntity
  8
0
100
AcDbMText
 10
11492.48489708803
 20
-16118.60095151451
 30
0.0
 40
25.0
 41
0.0
 71
     5
 72
     1
  1
\A1;360
 73
     1
 44
1.0
1001
ACAD
1000
MTEXTBEGIN
1070
    73
1070
     1
1070
    44
1040
1.0
1070
    74
1070
     0
1000
MTEXTEND
  0
LINE
  5
7A83B
330
1F
100
AcDbEntity
  8
0
 62
     5
100
AcDbLine
 10
11051.79591607882
 20
-16360.68162433353
 30
0.0
 11
10932.34126046901
 21
-16360.68162433353
 31
0.0
  0
LINE
  5
7A83C
330
1F
100
AcDbEntity
  8
0
 62
     5
100
AcDbLine
 10
11051.79591607883
 20
-16309.39312628552
 30
0.0
 11
10932.34126046901
 21
-16309.39312628552
 31
0.0
  0
LINE
  5
7A83D
330
1F
100
AcDbEntity
  8
0
 62
     5
100
AcDbLine
 10
10932.34126046901
 20
-16350.68162433353
 30
0.0
 11
10932.34126046901
 21
-16319.39312628553
 31
0.0
  0
INSERT
  5
7A83E
330
1F
100
AcDbEntity
  8
0
 62
     5
100
AcDbBlockReference
  2
_Origin
 10
10932.34126046901
 20
-16360.68162433353
 30
0.0
 41
10.0
 42
10.0
 43
10.0
 50
270.0
  0
INSERT
  5
7A83F
330
1F
100
AcDbEntity
  8
0
 62
     5
100
AcDbBlockReference
  2
_Origin
 10
10932.34126046901
 20
-16309.39312628552
 30
0.0
 41
10.0
 42
10.0
 43
10.0
 50
90.0
  0
MTEXT
  5
7A840
330
1F
100
AcDbEntity
  8
0
100
AcDbMText
 10
10906.71243653972
 20
-16361.98701521037
 30
0.0
 40
25.0
 41
0.0
 71
     1
 72
     1
  1
\A1;51
 11
0.0000000000000001
 21
1.0
 31
0.0
 73
     1
 44
1.0
1001
ACAD
1000
MTEXTBEGIN
1070
    73
1070
     1
1070
    44
1040
1.0
1070
    74
1070
     0
1000
MTEXTEND
  0
LINE
  5
7A841
330
1F
100
AcDbEntity
  8
0
 62
     5
100
AcDbLine
 10
11051.79591607882
 20
-16462.2147022784
 30
0.0
 11
10932.34126046901
 21
-16462.2147022784
 31
0.0
  0
LINE
  5
7A842
330
1F
100
AcDbEntity
  8
0
 62
     5
100
AcDbLine
 10
11051.79591607882
 20
-16360.68162433353
 30
0.0
 11
10932.34126046901
 21
-16360.68162433353
 31
0.0
  0
LINE
  5
7A843
330
1F
100
AcDbEntity
  8
0
 62
     5
100
AcDbLine
 10
10932.34126046901
 20
-16452.2147022784
 30
0.0
 11
10932.34126046901
 21
-16370.68162433353
 31
0.0
  0
INSERT
  5
7A844
330
1F
100
AcDbEntity
  8
0
 62
     5
100
AcDbBlockReference
  2
_Origin
 10
10932.34126046901
 20
-16462.2147022784
 30
0.0
 41
10.0
 42
10.0
 43
10.0
 50
270.0
  0
INSERT
  5
7A845
330
1F
100
AcDbEntity
  8
0
 62
     5
100
AcDbBlockReference
  2
_Origin
 10
10932.34126046901
 20
-16360.68162433353
 30
0.0
 41
10.0
 42
10.0
 43
10.0
 50
90.0
  0
MTEXT
  5
7A846
330
1F
100
AcDbEntity
  8
0
100
AcDbMText
 10
10906.08361261041
 20
-16437.27243251059
 30
0.0
 40
25.0
 41
0.0
 71
     1
 72
     1
  1
\A1;102
 11
0.0000000000000001
 21
1.0
 31
0.0
 73
     1
 44
1.0
1001
ACAD
1000
MTEXTBEGIN
1070
    73
1070
     1
1070
    44
1040
1.0
1070
    74
1070
     0
1000
MTEXTEND
  0
LINE
  5
7A847
330
1F
100
AcDbEntity
  8
0
 62
     5
100
AcDbLine
 10
11144.79225842864
 20
-15069.72769583444
 30
0.0
 11
11144.79225842864
 21
-14950.27304022463
 31
0.0
  0
LINE
  5
7A848
330
1F
100
AcDbEntity
  8
0
 62
     5
100
AcDbLine
 10
11840.17752130176
 20
-15069.72769583444
 30
0.0
 11
11840.17752130176
 21
-14950.27304022463
 31
0.0
  0
LINE
  5
7A849
330
1F
100
AcDbEntity
  8
0
 62
     5
100
AcDbLine
 10
11154.79225842864
 20
-14950.27304022463
 30
0.0
 11
11830.17752130176
 21
-14950.27304022463
 31
0.0
  0
INSERT
  5
7A84A
330
1F
100
AcDbEntity
  8
0
 62
     5
100
AcDbBlockReference
  2
_Origin
 10
11144.79225842864
 20
-14950.27304022463
 30
0.0
 41
10.0
 42
10.0
 43
10.0
 50
180.0
  0
INSERT
  5
7A84B
330
1F
100
AcDbEntity
  8
0
 62
     5
100
AcDbBlockReference
  2
_Origin
 10
11840.17752130176
 20
-14950.27304022463
 30
0.0
 41
10.0
 42
10.0
 43
10.0
  0
MTEXT
  5
7A84C
330
1F
100
AcDbEntity
  8
0
100
AcDbMText
 10
11465.98794900864
 20
-14924.01539236604
 30
0.0
 40
25.0
 41
0.0
 71
     1
 72
     1
  1
\A1;695
 73
     1
 44
1.0
1001
ACAD
1000
MTEXTBEGIN
1070
    73
1070
     1
1070
    44
1040
1.0
1070
    74
1070
     0
1000
MTEXTEND
  0
LINE
  5
7A84D
330
1F
100
AcDbEntity
  8
0
 62
     5
100
AcDbLine
 10
11051.79591607882
 20
-15858.10931550307
 30
0.0
 11
10932.34126046901
 21
-15858.10931550307
 31
0.0
  0
LINE
  5
7A84E
330
1F
100
AcDbEntity
  8
0
 62
     5
100
AcDbLine
 10
11051.79591607882
 20
-15162.72405262995
 30
0.0
 11
10932.34126046901
 21
-15162.72405262995
 31
0.0
  0
LINE
  5
7A84F
330
1F
100
AcDbEntity
  8
0
 62
     5
100
AcDbLine
 10
10932.34126046901
 20
-15848.10931550307
 30
0.0
 11
10932.34126046901
 21
-15172.72405262995
 31
0.0
  0
INSERT
  5
7A850
330
1F
100
AcDbEntity
  8
0
 62
     5
100
AcDbBlockReference
  2
_Origin
 10
10932.34126046901
 20
-15858.10931550307
 30
0.0
 41
10.0
 42
10.0
 43
10.0
 50
270.0
  0
INSERT
  5
7A851
330
1F
100
AcDbEntity
  8
0
 62
     5
100
AcDbBlockReference
  2
_Origin
 10
10932.34126046901
 20
-15162.72405262995
 30
0.0
 41
10.0
 42
10.0
 43
10.0
 50
90.0
  0
MTEXT
  5
7A852
330
1F
100
AcDbEntity
  8
0
100
AcDbMText
 10
10906.08361261042
 20
-15537.91362492307
 30
0.0
 40
25.0
 41
0.0
 71
     1
 72
     1
  1
\A1;695
 11
0.0000000000000001
 21
1.0
 31
0.0
 73
     1
 44
1.0
1001
ACAD
1000
MTEXTBEGIN
1070
    73
1070
     1
1070
    44
1040
1.0
1070
    74
1070
     0
1000
MTEXTEND
  0
INSERT
  5
7A853
330
1F
100
AcDbEntity
  8
__-1
  6
Continuous
100
AcDbBlockReference
  2
A$C19575CB4
 10
10135.19262515445
 20
-16815.52171463415
 30
0.0
 41
0.7100000000000364
 42
0.7100000000000364
 43
0.7100000000000364
  0
LINE
  5
7A854
330
1F
100
AcDbEntity
  8
__
 62
     6
100
AcDbLine
 10
10002.20278430509
 20
-14850.05659072758
 30
0.0
 11
12895.45278430524
 21
-14850.05659072758
 31
0.0
  0
LINE
  5
7A855
330
1F
100
AcDbEntity
  8
__
 62
     6
100
AcDbLine
 10
12895.45278430524
 20
-14850.05659072758
 30
0.0
 11
12895.45278430524
 21
-16859.35659072768
 31
0.0
  0
LINE
  5
7A856
330
1F
100
AcDbEntity
  8
__
 62
     6
100
AcDbLine
 10
12895.45278430524
 20
-16859.35659072768
 30
0.0
 11
10002.20278430509
 21
-16859.35659072768
 31
0.0
  0
LINE
  5
7A857
330
1F
100
AcDbEntity
  8
__
 62
     6
100
AcDbLine
 10
10002.20278430509
 20
-16859.35659072768
 30
0.0
 11
10002.20278430509
 21
-14850.05659072758
 31
0.0
  0
ENDSEC
  0
SECTION
  2
OBJECTS
  0
DICTIONARY
  5
C
330
0
100
AcDbDictionary
281
     1
  3
ACAD_2007HEADERVARS_RT
350
7A8EC
  3
ACAD_BACKGROUND
350
49B32
  3
ACAD_COLOR
350
3342
  3
ACAD_GROUP
350
D
  3
ACAD_IMAGE_DICT
350
790F2
  3
ACAD_IMAGE_VARS
350
790F4
  3
ACAD_LAYOUT
350
1A
  3
ACAD_MATERIAL
350
3341
  3
ACAD_MLEADERSTYLE
350
2DF7C
  3
ACAD_MLINESTYLE
350
17
  3
ACAD_PLOTSETTINGS
350
19
  3
ACAD_PLOTSTYLENAME
350
E
  3
ACAD_SCALELIST
350
2DF5A
  3
ACAD_TABLESTYLE
350
3343
  3
ACAD_VISUALSTYLE
350
2DF49
  3
ACDB_RECOMPOSE_DATA
350
7A8EA
  3
AcDbVariableDictionary
350
8875
  3
ASE_INDEX_DICTIONARY
350
4AC26
  3
DWGPROPS
350
7A8EB
  0
DICTIONARY
  5
477CD
330
8
100
AcDbDictionary
280
     1
281
     1
  0
DICTIONARY
  5
477BD
330
10
100
AcDbDictionary
280
     1
281
     1
  3
ADSK_XREC_LAYER_RECONCILED
360
477BE
  0
DICTIONARY
  5
477BF
330
8869
100
AcDbDictionary
280
     1
281
     1
  3
ADSK_XREC_LAYER_RECONCILED
360
477C0
  0
DICTIONARY
  5
477C1
330
88CE
100
AcDbDictionary
280
     1
281
     1
  3
ADSK_XREC_LAYER_RECONCILED
360
477C2
  0
DICTIONARY
  5
477C3
330
88CF
100
AcDbDictionary
280
     1
281
     1
  3
ADSK_XREC_LAYER_RECONCILED
360
477C4
  0
DICTIONARY
  5
8872
330
1F
100
AcDbDictionary
280
     1
281
     1
  3
ACAD_SORTENTS
360
8873
  0
DICTIONARY
  5
7A8EC
102
{ACAD_REACTORS
330
C
102
}
330
C
100
AcDbDictionary
281
     1
  3
DIMFXL
350
7A8ED
  0
DICTIONARY
  5
49B32
102
{ACAD_REACTORS
330
C
102
}
330
C
100
AcDbDictionary
281
     1
  0
DICTIONARY
  5
3342
102
{ACAD_REACTORS
330
C
102
}
330
C
100
AcDbDictionary
281
     1
  0
DICTIONARY
  5
D
102
{ACAD_REACTORS
330
C
102
}
330
C
100
AcDbDictionary
281
     1
  0
DICTIONARY
  5
790F2
102
{ACAD_REACTORS
330
C
102
}
330
C
100
AcDbDictionary
281
     1
  3
ＲＢ-1
350
79145
  3
ＲＢ-290-1
350
790F3
  3
ＲＢ-290-2Ｆ
350
7916B
  3
ＲＢ-290-2Ｐ
350
79181
  3
ＲＢ-290-2ＳＡ
350
79193
  3
ＲＢ-290-3
350
79187
  3
ＲＢ-290-ＵＦ
350
79199
  3
ＲＢ-290-ＵＰ
350
7919F
  3
ＲＢ-2Ｆ
350
7916E
  3
ＲＢ-2Ｐ
350
7917A
  3
ＲＢ-6
350
79190
  3
ＲＢ-ＳＡ-700
350
79184
  3
ＲＢ-ＵＦ
350
79196
  3
ＲＢ-ＵＰ
350
7919C
  0
RASTERVARIABLES
  5
790F4
102
{ACAD_REACTORS
330
C
102
}
330
C
100
AcDbRasterVariables
 90
        0
 70
     1
 71
     1
 72
     5
  0
DICTIONARY
  5
1A
102
{ACAD_REACTORS
330
C
102
}
330
C
100
AcDbDictionary
281
     1
  3
Layout1
350
1E
  3
Layout2
350
26
  3
Model
350
22
  0
DICTIONARY
  5
3341
102
{ACAD_REACTORS
330
C
102
}
330
C
100
AcDbDictionary
281
     1
  3
ByBlock
350
2DF41
  3
ByLayer
350
2DF39
  3
Global
350
12D2E
  0
DICTIONARY
  5
2DF7C
102
{ACAD_REACTORS
330
C
102
}
330
C
100
AcDbDictionary
281
     1
  3
Standard
350
2DF7D
  0
DICTIONARY
  5
17
102
{ACAD_REACTORS
330
C
102
}
330
C
100
AcDbDictionary
281
     1
  3
Standard
350
18
  0
DICTIONARY
  5
19
102
{ACAD_REACTORS
330
C
102
}
330
C
100
AcDbDictionary
281
     1
  0
ACDBDICTIONARYWDFLT
  5
E
102
{ACAD_REACTORS
330
C
102
}
330
C
100
AcDbDictionary
281
     1
  3
Normal
350
F
100
AcDbDictionaryWithDefault
340
F
  0
DICTIONARY
  5
2DF5A
102
{ACAD_REACTORS
330
C
102
}
330
C
100
AcDbDictionary
281
     1
  3
A0
350
2DF5B
  3
A1
350
2DF5C
  3
A2
350
2DF5D
  3
A3
350
2DF5E
  3
A4
350
2DF5F
  3
A5
350
2DF60
  3
A6
350
2DF61
  3
A7
350
2DF62
  3
A8
350
2DF63
  3
A9
350
2DF64
  3
B0
350
2DF65
  3
B1
350
2DF66
  3
B2
350
2DF67
  3
B3
350
2DF68
  3
B4
350
2DF69
  3
B5
350
2DF6A
  3
B6
350
2DF6B
  3
B7
350
2DF6C
  3
B8
350
2DF6D
  3
B9
350
2DF6E
  3
C0
350
2DF6F
  3
C1
350
2DF70
  3
C2
350
2DF71
  3
C3
350
2DF72
  3
C4
350
2DF73
  3
C5
350
2DF74
  3
C6
350
2DF75
  3
C7
350
2DF76
  3
C8
350
2DF77
  3
C9
350
2DF78
  3
D0
350
2DF79
  3
D1
350
2DF7A
  3
D2
350
2DF7B
  0
DICTIONARY
  5
3343
102
{ACAD_REACTORS
330
C
102
}
330
C
100
AcDbDictionary
281
     1
  3
Standard
350
3344
  0
DICTIONARY
  5
2DF49
102
{ACAD_REACTORS
330
C
102
}
330
C
100
AcDbDictionary
281
     1
  3
2dWireframe
350
2DF4F
  3
3D Hidden
350
2DF51
  3
3dWireframe
350
2DF50
  3
Basic
350
2DF4E
  3
Brighten
350
2DF55
  3
ColorChange
350
2DF59
  3
Conceptual
350
2DF52
  3
Dim
350
2DF54
  3
EdgeColorOff
350
49B26
  3
Facepattern
350
2DF58
  3
Flat
350
2DF4A
  3
FlatWithEdges
350
2DF4B
  3
Gouraud
350
2DF4C
  3
GouraudWithEdges
350
2DF4D
  3
Hidden
350
49B1E
  3
JitterOff
350
49B24
  3
Linepattern
350
2DF57
  3
OverhangOff
350
49B25
  3
Realistic
350
2DF53
  3
Shaded
350
49B23
  3
Shaded with edges
350
49B22
  3
Shades of Gray
350
49B1F
  3
Sketchy
350
49B20
  3
Thicken
350
2DF56
  3
Wireframe
350
49B1D
  3
X-Ray
350
49B21
  0
XRECORD
  5
7A8EA
102
{ACAD_REACTORS
330
C
102
}
330
C
100
AcDbXrecord
280
     1
 90
        1
330
3344
  0
DICTIONARY
  5
8875
102
{ACAD_REACTORS
330
C
102
}
330
C
100
AcDbDictionary
281
     1
  3
CANNOSCALE
350
47819
  3
CMLEADERSTYLE
350
47818
  3
CTABLESTYLE
350
8876
  3
DIMASSOC
350
8930
  3
INDEXCTL
350
4781B
  3
PROJECTNAME
350
8931
  3
SORTENTS
350
4781A
  3
XCLIPFRAME
350
7A8A8
  0
DICTIONARY
  5
4AC26
102
{ACAD_REACTORS
330
C
102
}
330
C
100
AcDbDictionary
281
     1
  3
ASEBlockHierarchyIndexRecord
350
4AC28
1001
DCO15
1040
1708628822.53
  0
XRECORD
  5
7A8EB
102
{ACAD_REACTORS
330
C
102
}
330
C
100
AcDbXrecord
280
     1
  1
DWGPROPS COOKIE
  2

  3

  4

  6

  7

  8
toshi10492
  9

300
=
301
=
302
=
303
=
304
=
305
=
306
=
307
=
308
=
309
=
 40
1.134162592592592
 41
2454649.11086985
 42
2457102.676282766
  1

 90
        0
  0
XRECORD
  5
477BE
102
{ACAD_REACTORS
330
477BD
102
}
330
477BD
100
AcDbXrecord
280
     1
290
     1
  0
XRECORD
  5
477C0
102
{ACAD_REACTORS
330
477BF
102
}
330
477BF
100
AcDbXrecord
280
     1
290
     1
  0
XRECORD
  5
477C2
102
{ACAD_REACTORS
330
477C1
102
}
330
477C1
100
AcDbXrecord
280
     1
290
     1
  0
XRECORD
  5
477C4
102
{ACAD_REACTORS
330
477C3
102
}
330
477C3
100
AcDbXrecord
280
     1
290
     1
  0
SORTENTSTABLE
  5
8873
102
{ACAD_REACTORS
330
8872
102
}
330
8872
100
AcDbSortentsTable
330
1F
331
67449
  5
6744D
331
7A856
  5
67467
331
633BA
  5
633BE
331
67451
  5
67461
331
674E0
  5
7A83C
331
633D2
  5
6742C
331
7A837
  5
7A84E
331
67461
  5
67469
331
7A83F
  5
7A847
331
67432
  5
67436
331
7A82F
  5
7A852
331
6743A
  5
6743E
331
67469
  5
67471
331
7A847
  5
7A833
331
633B3
  5
633B7
331
67442
  5
67446
331
67471
  5
67480
331
7A84F
  5
7A82F
331
67481
  5
67580
331
633BB
  5
633BF
331
6744A
  5
6744E
331
7A857
  5
67468
331
633C3
  5
633C7
331
67452
  5
67462
331
633D3
  5
6742D
331
67539
  5
7A84A
331
7A830
  5
7A853
331
6742B
  5
6742F
331
7A838
  5
7A84F
331
67433
  5
67437
331
67462
  5
6746A
331
7A840
  5
7A848
331
6743B
  5
6743F
331
6746A
  5
67472
331
7A848
  5
7A834
331
67472
  5
67482
331
633B4
  5
633B8
331
67443
  5
67447
331
7A850
  5
7A830
331
6744B
  5
6744F
331
633BC
  5
633C0
331
633C4
  5
633C8
331
633CC
  5
633D0
331
633D4
  5
6742E
331
6753A
  5
7A84B
331
7A831
  5
7A854
331
7A839
  5
7A850
331
6742C
  5
67430
331
67434
  5
67438
331
67463
  5
6746B
331
7A841
  5
7A83D
331
6743C
  5
67440
331
6746B
  5
67473
331
7A849
  5
7A835
331
633AD
  5
633B1
331
633B5
  5
633B9
331
67444
  5
67448
331
67473
  5
674DD
331
7A851
  5
7A831
331
633BD
  5
633C3
331
6744C
  5
67450
331
633C5
  5
633C9
331
633CD
  5
633D1
331
7A832
  5
7A855
331
6742D
  5
67431
331
7A83A
  5
7A851
331
67435
  5
67439
331
67464
  5
6746C
331
7A842
  5
7A83E
331
7A84A
  5
7A836
331
633AE
  5
633B2
331
6743D
  5
67441
331
6746C
  5
67474
331
67445
  5
67449
331
67474
  5
674DE
331
633B6
  5
633BA
331
7A852
  5
7A832
331
6744D
  5
67451
331
633BE
  5
633C4
331
633C6
  5
633CC
331
633CE
  5
633D2
331
7A833
  5
7A856
331
7A83B
  5
7A843
331
6742E
  5
67432
331
67436
  5
6743A
331
67465
  5
6746D
331
7A843
  5
7A83F
331
62F27
  5
633B0
331
6743E
  5
67442
331
6746D
  5
67475
331
7A84B
  5
7A837
331
633AF
  5
633B3
331
633B7
  5
633BB
331
67446
  5
6744A
331
67475
  5
674E4
331
7A853
  5
67536
331
633BF
  5
633C5
331
6744E
  5
67452
331
674DD
  5
7A839
331
633C7
  5
633CD
331
633CF
  5
633D3
331
7A834
  5
7A857
331
6742F
  5
67433
331
7A83C
  5
7A844
331
67437
  5
6743B
331
67466
  5
6746E
331
7A844
  5
7A840
331
6746E
  5
67476
331
7A84C
  5
7A838
331
633B0
  5
633B4
331
6743F
  5
67443
331
67447
  5
6744B
331
7A854
  5
67465
331
633B8
  5
633BC
331
6744F
  5
6745F
331
633C0
  5
633C6
331
633C8
  5
633CE
331
674DE
  5
7A83A
331
633D0
  5
633D4
331
6745F
  5
67463
331
67536
  5
7A849
331
7A835
  5
7A84C
331
7A83D
  5
7A845
331
67430
  5
67434
331
67438
  5
6743C
331
67467
  5
6746F
331
7A845
  5
7A841
331
633B1
  5
633B5
331
67440
  5
67444
331
6746F
  5
67477
331
7A84D
  5
68200
331
67477
  5
6750D
331
633B9
  5
633BD
331
67448
  5
6744C
331
7A855
  5
67466
331
67450
  5
67460
331
674DF
  5
7A83B
331
633C9
  5
633CF
331
633D1
  5
6742B
331
7A836
  5
7A84D
331
62F1A
  5
633AF
331
67431
  5
67435
331
7A83E
  5
7A846
331
67439
  5
6743D
331
67468
  5
67470
331
7A846
  5
7A842
331
67470
  5
67478
331
7A84E
  5
68201
331
633B2
  5
633B6
331
67441
  5
67445
331
67480
  5
67539
  0
XRECORD
  5
7A8ED
102
{ACAD_REACTORS
330
7A8EC
102
}
330
7A8EC
100
AcDbXrecord
280
     1
 40
0.25
  0
IMAGEDEF
  5
79145
102
{ACAD_REACTORS
330
790F2
102
}
330
790F2
100
AcDbRasterImageDef
 90
        0
  1
L:\project\act-works\スカイライトチューブ\ＣＡＤデータ\ルーフベース\ＲＢ-1.jpg
 10
1000.0
 20
667.0
 11
0.001
 21
0.001
280
     1
281
     0
  0
IMAGEDEF
  5
790F3
102
{ACAD_REACTORS
330
790F2
102
}
330
790F2
100
AcDbRasterImageDef
 90
        0
  1
L:\project\act-works\スカイライトチューブ\ＣＡＤデータ\ルーフベース\ＲＢ-290-1.jpg
 10
1000.0
 20
667.0
 11
0.001
 21
0.001
280
     1
281
     0
  0
IMAGEDEF
  5
7916B
102
{ACAD_REACTORS
330
790F2
102
}
330
790F2
100
AcDbRasterImageDef
 90
        0
  1
L:\project\act-works\スカイライトチューブ\ＣＡＤデータ\ルーフベース\ＲＢ-290-2Ｆ.jpg
 10
1000.0
 20
667.0
 11
0.001
 21
0.001
280
     1
281
     0
  0
IMAGEDEF
  5
79181
102
{ACAD_REACTORS
330
790F2
102
}
330
790F2
100
AcDbRasterImageDef
 90
        0
  1
L:\project\act-works\スカイライトチューブ\ＣＡＤデータ\ルーフベース\ＲＢ-290-2Ｐ.jpg
 10
1000.0
 20
667.0
 11
0.001
 21
0.001
280
     1
281
     0
  0
IMAGEDEF
  5
79193
102
{ACAD_REACTORS
330
790F2
102
}
330
790F2
100
AcDbRasterImageDef
 90
        0
  1
L:\project\act-works\スカイライトチューブ\ＣＡＤデータ\ルーフベース\ＲＢ-290-2ＳＡ.jpg
 10
1000.0
 20
667.0
 11
0.001
 21
0.001
280
     1
281
     0
  0
IMAGEDEF
  5
79187
102
{ACAD_REACTORS
330
790F2
102
}
330
790F2
100
AcDbRasterImageDef
 90
        0
  1
L:\project\act-works\スカイライトチューブ\ＣＡＤデータ\ルーフベース\ＲＢ-290-3.jpg
 10
1000.0
 20
667.0
 11
0.001
 21
0.001
280
     1
281
     0
  0
IMAGEDEF
  5
79199
102
{ACAD_REACTORS
330
790F2
102
}
330
790F2
100
AcDbRasterImageDef
 90
        0
  1
L:\project\act-works\スカイライトチューブ\ＣＡＤデータ\ルーフベース\ＲＢ-290-ＵＦ.jpg
 10
1000.0
 20
667.0
 11
0.001
 21
0.001
280
     1
281
     0
  0
IMAGEDEF
  5
7919F
102
{ACAD_REACTORS
330
790F2
102
}
330
790F2
100
AcDbRasterImageDef
 90
        0
  1
L:\project\act-works\スカイライトチューブ\ＣＡＤデータ\ルーフベース\ＲＢ-290-ＵＰ.jpg
 10
1000.0
 20
667.0
 11
0.001
 21
0.001
280
     1
281
     0
  0
IMAGEDEF
  5
7916E
102
{ACAD_REACTORS
330
790F2
102
}
330
790F2
100
AcDbRasterImageDef
 90
        0
  1
L:\project\act-works\スカイライトチューブ\ＣＡＤデータ\ルーフベース\ＲＢ-2Ｆ.jpg
 10
1000.0
 20
667.0
 11
0.001
 21
0.001
280
     1
281
     0
  0
IMAGEDEF
  5
7917A
102
{ACAD_REACTORS
330
790F2
102
}
330
790F2
100
AcDbRasterImageDef
 90
        0
  1
L:\project\act-works\スカイライトチューブ\ＣＡＤデータ\ルーフベース\ＲＢ-2Ｐ.jpg
 10
1000.0
 20
667.0
 11
0.001
 21
0.001
280
     1
281
     0
  0
IMAGEDEF
  5
79190
102
{ACAD_REACTORS
330
790F2
102
}
330
790F2
100
AcDbRasterImageDef
 90
        0
  1
L:\project\act-works\スカイライトチューブ\ＣＡＤデータ\ルーフベース\ＲＢ-6.jpg
 10
1000.0
 20
667.0
 11
0.001
 21
0.001
280
     1
281
     0
  0
IMAGEDEF
  5
79184
102
{ACAD_REACTORS
330
790F2
102
}
330
790F2
100
AcDbRasterImageDef
 90
        0
  1
L:\project\act-works\スカイライトチューブ\ＣＡＤデータ\ルーフベース\ＲＢ-ＳＡ-700.jpg
 10
1000.0
 20
667.0
 11
0.001
 21
0.001
280
     1
281
     0
  0
IMAGEDEF
  5
79196
102
{ACAD_REACTORS
330
790F2
102
}
330
790F2
100
AcDbRasterImageDef
 90
        0
  1
L:\project\act-works\スカイライトチューブ\ＣＡＤデータ\ルーフベース\ＲＢ-ＵＦ.jpg
 10
1000.0
 20
667.0
 11
0.001
 21
0.001
280
     1
281
     0
  0
IMAGEDEF
  5
7919C
102
{ACAD_REACTORS
330
790F2
102
}
330
790F2
100
AcDbRasterImageDef
 90
        0
  1
L:\project\act-works\スカイライトチューブ\ＣＡＤデータ\ルーフベース\ＲＢ-ＵＰ.jpg
 10
1000.0
 20
667.0
 11
0.001
 21
0.001
280
     1
281
     0
  0
LAYOUT
  5
1E
102
{ACAD_XDICTIONARY
360
7A8EE
102
}
102
{ACAD_REACTORS
330
1A
102
}
330
1A
100
AcDbPlotSettings
  1

  2

  4

  6

 40
0.0
 41
0.0
 42
0.0
 43
0.0
 44
0.0
 45
0.0
 46
0.0
 47
0.0
 48
0.0
 49
0.0
140
0.0
141
0.0
142
1.0
143
1.0
 70
   688
 72
     0
 73
     0
 74
     5
  7
hiroya.ctb
 75
    16
147
1.0
148
0.0
149
0.0
100
AcDbLayout
  1
Layout1
 70
     1
 71
     1
 10
0.0
 20
0.0
 11
12.0
 21
9.0
 12
0.0
 22
0.0
 32
0.0
 14
1.000000000000000E+20
 24
1.000000000000000E+20
 34
1.000000000000000E+20
 15
-1.000000000000000E+20
 25
-1.000000000000000E+20
 35
-1.000000000000000E+20
146
0.0
 13
0.0
 23
0.0
 33
0.0
 16
1.0
 26
0.0
 36
0.0
 17
0.0
 27
1.0
 37
0.0
 76
     0
330
1B
  0
LAYOUT
  5
26
102
{ACAD_XDICTIONARY
360
7A8F2
102
}
102
{ACAD_REACTORS
330
1A
102
}
330
1A
100
AcDbPlotSettings
  1

  2

  4

  6

 40
0.0
 41
0.0
 42
0.0
 43
0.0
 44
0.0
 45
0.0
 46
0.0
 47
0.0
 48
0.0
 49
0.0
140
0.0
141
0.0
142
1.0
143
1.0
 70
   688
 72
     0
 73
     0
 74
     5
  7
hiroya.ctb
 75
    16
147
1.0
148
0.0
149
0.0
100
AcDbLayout
  1
Layout2
 70
     1
 71
     2
 10
0.0
 20
0.0
 11
0.0
 21
0.0
 12
0.0
 22
0.0
 32
0.0
 14
0.0
 24
0.0
 34
0.0
 15
0.0
 25
0.0
 35
0.0
146
0.0
 13
0.0
 23
0.0
 33
0.0
 16
1.0
 26
0.0
 36
0.0
 17
0.0
 27
1.0
 37
0.0
 76
     0
330
23
  0
LAYOUT
  5
22
102
{ACAD_XDICTIONARY
360
7A8F0
102
}
102
{ACAD_REACTORS
330
1A
102
}
330
1A
100
AcDbPlotSettings
  1

  2
Adobe PDF
  4
A4
  6

 40
3.174999952316283
 41
3.174999952316283
 42
3.175003051757812
 43
3.17498779296875
 44
209.9098358154297
 45
297.0318298339844
 46
0.0
 47
0.0
 48
0.0
 49
0.0
140
0.0
141
0.0
142
1.0
143
476.766068508588
 70
 11952
 72
     0
 73
     1
 74
     0
  7
hiroya.ctb
 75
     0
147
0.0020974647024026
148
-49479.29349823086
149
27472.31677017284
100
AcDbLayout
  1
Model
 70
     1
 71
     0
 10
0.0
 20
0.0
 11
0.0
 21
0.0
 12
0.0
 22
0.0
 32
0.0
 14
0.0
 24
0.0
 34
0.0
 15
155.0
 25
100.0
 35
0.0
146
0.0
 13
0.0
 23
0.0
 33
0.0
 16
1.0
 26
0.0
 36
0.0
 17
0.0
 27
1.0
 37
0.0
 76
     0
330
1F
331
2DF30
1001
ACAD_PSEXT
1000
Adobe PDF
1000
Adobe PDF Converter
1000
My Documents
1000
Creates Adobe PDF
1070
     0
  0
MATERIAL
  5
2DF41
102
{ACAD_XDICTIONARY
360
2DF42
102
}
102
{ACAD_REACTORS
330
3341
102
}
330
3341
100
AcDbMaterial
  1
ByBlock
 72
     0
 43
0.0208333333333333
 43
0.0
 43
0.0
 43
0.0
 43
0.0
 43
0.0208333333333333
 43
0.0
 43
0.0
 43
0.0
 43
0.0
 43
1.0
 43
0.0
 43
0.0
 43
0.0
 43
0.0
 43
1.0
 77
     0
 47
0.0208333333333333
 47
0.0
 47
0.0
 47
0.0
 47
0.0
 47
0.0208333333333333
 47
0.0
 47
0.0
 47
0.0
 47
0.0
 47
1.0
 47
0.0
 47
0.0
 47
0.0
 47
0.0
 47
1.0
171
     0
 49
0.0208333333333333
 49
0.0
 49
0.0
 49
0.0
 49
0.0
 49
0.0208333333333333
 49
0.0
 49
0.0
 49
0.0
 49
0.0
 49
1.0
 49
0.0
 49
0.0
 49
0.0
 49
0.0
 49
1.0
175
     0
142
0.0208333333333333
142
0.0
142
0.0
142
0.0
142
0.0
142
0.0208333333333333
142
0.0
142
0.0
142
0.0
142
0.0
142
1.0
142
0.0
142
0.0
142
0.0
142
0.0
142
1.0
179
     0
144
0.0208333333333333
144
0.0
144
0.0
144
0.0
144
0.0
144
0.0208333333333333
144
0.0
144
0.0
144
0.0
144
0.0
144
1.0
144
0.0
144
0.0
144
0.0
144
0.0
144
1.0
147
0.0208333333333333
147
0.0
147
0.0
147
0.0
147
0.0
147
0.0208333333333333
147
0.0
147
0.0
147
0.0
147
0.0
147
1.0
147
0.0
147
0.0
147
0.0
147
0.0
147
1.0
  0
MATERIAL
  5
2DF39
102
{ACAD_XDICTIONARY
360
2DF3A
102
}
102
{ACAD_REACTORS
330
3341
102
}
330
3341
100
AcDbMaterial
  1
ByLayer
 72
     0
 43
0.0208333333333333
 43
0.0
 43
0.0
 43
0.0
 43
0.0
 43
0.0208333333333333
 43
0.0
 43
0.0
 43
0.0
 43
0.0
 43
1.0
 43
0.0
 43
0.0
 43
0.0
 43
0.0
 43
1.0
 77
     0
 47
0.0208333333333333
 47
0.0
 47
0.0
 47
0.0
 47
0.0
 47
0.0208333333333333
 47
0.0
 47
0.0
 47
0.0
 47
0.0
 47
1.0
 47
0.0
 47
0.0
 47
0.0
 47
0.0
 47
1.0
171
     0
 49
0.0208333333333333
 49
0.0
 49
0.0
 49
0.0
 49
0.0
 49
0.0208333333333333
 49
0.0
 49
0.0
 49
0.0
 49
0.0
 49
1.0
 49
0.0
 49
0.0
 49
0.0
 49
0.0
 49
1.0
175
     0
142
0.0208333333333333
142
0.0
142
0.0
142
0.0
142
0.0
142
0.0208333333333333
142
0.0
142
0.0
142
0.0
142
0.0
142
1.0
142
0.0
142
0.0
142
0.0
142
0.0
142
1.0
179
     0
144
0.0208333333333333
144
0.0
144
0.0
144
0.0
144
0.0
144
0.0208333333333333
144
0.0
144
0.0
144
0.0
144
0.0
144
1.0
144
0.0
144
0.0
144
0.0
144
0.0
144
1.0
147
0.0208333333333333
147
0.0
147
0.0
147
0.0
147
0.0
147
0.0208333333333333
147
0.0
147
0.0
147
0.0
147
0.0
147
1.0
147
0.0
147
0.0
147
0.0
147
0.0
147
1.0
  0
MATERIAL
  5
12D2E
102
{ACAD_XDICTIONARY
360
7A865
102
}
102
{ACAD_REACTORS
330
3341
102
}
330
3341
100
AcDbMaterial
  1
Global
 73
     1
 78
     1
172
     1
176
     1
270
     1
274
     1
  0
MLEADERSTYLE
  5
2DF7D
102
{ACAD_REACTORS
330
2DF7C
102
}
330
2DF7C
100
AcDbMLeaderStyle
170
     2
171
     1
172
     0
 90
        2
 40
0.0
 41
0.0
173
     1
 91
-1056964608
340
14
 92
       -2
290
     1
 42
0.09
291
     1
 43
0.36
  3
Standard
 44
0.18
300

342
11
174
     1
178
     6
175
     1
176
     0
 93
-1056964608
 45
0.18
292
     0
297
     0
 46
0.18
 94
-1056964608
 47
1.0
 49
1.0
140
1.0
293
     1
141
0.0
294
     1
177
     0
142
1.0
295
     0
296
     0
143
0.125
1001
ACAD_MLEADERVER
1070
     2
  0
MLINESTYLE
  5
18
102
{ACAD_REACTORS
330
17
102
}
330
17
100
AcDbMlineStyle
  2
STANDARD
 70
     0
  3

 62
   256
 51
90.0
 52
90.0
 71
     2
 49
0.5
 62
   256
  6
BYLAYER
 49
-0.5
 62
   256
  6
BYLAYER
  0
ACDBPLACEHOLDER
  5
F
102
{ACAD_REACTORS
330
E
102
}
330
E
  0
SCALE
  5
2DF5B
102
{ACAD_REACTORS
330
2DF5A
102
}
330
2DF5A
100
AcDbScale
 70
     0
300
1:1
140
1.0
141
1.0
290
     1
  0
SCALE
  5
2DF5C
102
{ACAD_REACTORS
330
2DF5A
102
}
330
2DF5A
100
AcDbScale
 70
     0
300
1:2
140
1.0
141
2.0
290
     0
  0
SCALE
  5
2DF5D
102
{ACAD_REACTORS
330
2DF5A
102
}
330
2DF5A
100
AcDbScale
 70
     0
300
1:4
140
1.0
141
4.0
290
     0
  0
SCALE
  5
2DF5E
102
{ACAD_REACTORS
330
2DF5A
102
}
330
2DF5A
100
AcDbScale
 70
     0
300
1:5
140
1.0
141
5.0
290
     0
  0
SCALE
  5
2DF5F
102
{ACAD_REACTORS
330
2DF5A
102
}
330
2DF5A
100
AcDbScale
 70
     0
300
1:8
140
1.0
141
8.0
290
     0
  0
SCALE
  5
2DF60
102
{ACAD_REACTORS
330
2DF5A
102
}
330
2DF5A
100
AcDbScale
 70
     0
300
1:10
140
1.0
141
10.0
290
     0
  0
SCALE
  5
2DF61
102
{ACAD_REACTORS
330
2DF5A
102
}
330
2DF5A
100
AcDbScale
 70
     0
300
1:16
140
1.0
141
16.0
290
     0
  0
SCALE
  5
2DF62
102
{ACAD_REACTORS
330
2DF5A
102
}
330
2DF5A
100
AcDbScale
 70
     0
300
1:20
140
1.0
141
20.0
290
     0
  0
SCALE
  5
2DF63
102
{ACAD_REACTORS
330
2DF5A
102
}
330
2DF5A
100
AcDbScale
 70
     0
300
1:30
140
1.0
141
30.0
290
     0
  0
SCALE
  5
2DF64
102
{ACAD_REACTORS
330
2DF5A
102
}
330
2DF5A
100
AcDbScale
 70
     0
300
1:40
140
1.0
141
40.0
290
     0
  0
SCALE
  5
2DF65
102
{ACAD_REACTORS
330
2DF5A
102
}
330
2DF5A
100
AcDbScale
 70
     0
300
1:50
140
1.0
141
50.0
290
     0
  0
SCALE
  5
2DF66
102
{ACAD_REACTORS
330
2DF5A
102
}
330
2DF5A
100
AcDbScale
 70
     0
300
1:100
140
1.0
141
100.0
290
     0
  0
SCALE
  5
2DF67
102
{ACAD_REACTORS
330
2DF5A
102
}
330
2DF5A
100
AcDbScale
 70
     0
300
2:1
140
2.0
141
1.0
290
     0
  0
SCALE
  5
2DF68
102
{ACAD_REACTORS
330
2DF5A
102
}
330
2DF5A
100
AcDbScale
 70
     0
300
4:1
140
4.0
141
1.0
290
     0
  0
SCALE
  5
2DF69
102
{ACAD_REACTORS
330
2DF5A
102
}
330
2DF5A
100
AcDbScale
 70
     0
300
8:1
140
8.0
141
1.0
290
     0
  0
SCALE
  5
2DF6A
102
{ACAD_REACTORS
330
2DF5A
102
}
330
2DF5A
100
AcDbScale
 70
     0
300
10:1
140
10.0
141
1.0
290
     0
  0
SCALE
  5
2DF6B
102
{ACAD_REACTORS
330
2DF5A
102
}
330
2DF5A
100
AcDbScale
 70
     0
300
100:1
140
100.0
141
1.0
290
     0
  0
SCALE
  5
2DF6C
102
{ACAD_REACTORS
330
2DF5A
102
}
330
2DF5A
100
AcDbScale
 70
     0
300
1/128" = 1'-0"
140
0.0078125
141
12.0
290
     0
  0
SCALE
  5
2DF6D
102
{ACAD_REACTORS
330
2DF5A
102
}
330
2DF5A
100
AcDbScale
 70
     0
300
1/64" = 1'-0"
140
0.015625
141
12.0
290
     0
  0
SCALE
  5
2DF6E
102
{ACAD_REACTORS
330
2DF5A
102
}
330
2DF5A
100
AcDbScale
 70
     0
300
1/32" = 1'-0"
140
0.03125
141
12.0
290
     0
  0
SCALE
  5
2DF6F
102
{ACAD_REACTORS
330
2DF5A
102
}
330
2DF5A
100
AcDbScale
 70
     0
300
1/16" = 1'-0"
140
0.0625
141
12.0
290
     0
  0
SCALE
  5
2DF70
102
{ACAD_REACTORS
330
2DF5A
102
}
330
2DF5A
100
AcDbScale
 70
     0
300
3/32" = 1'-0"
140
0.09375
141
12.0
290
     0
  0
SCALE
  5
2DF71
102
{ACAD_REACTORS
330
2DF5A
102
}
330
2DF5A
100
AcDbScale
 70
     0
300
1/8" = 1'-0"
140
0.125
141
12.0
290
     0
  0
SCALE
  5
2DF72
102
{ACAD_REACTORS
330
2DF5A
102
}
330
2DF5A
100
AcDbScale
 70
     0
300
3/16" = 1'-0"
140
0.1875
141
12.0
290
     0
  0
SCALE
  5
2DF73
102
{ACAD_REACTORS
330
2DF5A
102
}
330
2DF5A
100
AcDbScale
 70
     0
300
1/4" = 1'-0"
140
0.25
141
12.0
290
     0
  0
SCALE
  5
2DF74
102
{ACAD_REACTORS
330
2DF5A
102
}
330
2DF5A
100
AcDbScale
 70
     0
300
3/8" = 1'-0"
140
0.375
141
12.0
290
     0
  0
SCALE
  5
2DF75
102
{ACAD_REACTORS
330
2DF5A
102
}
330
2DF5A
100
AcDbScale
 70
     0
300
1/2" = 1'-0"
140
0.5
141
12.0
290
     0
  0
SCALE
  5
2DF76
102
{ACAD_REACTORS
330
2DF5A
102
}
330
2DF5A
100
AcDbScale
 70
     0
300
3/4" = 1'-0"
140
0.75
141
12.0
290
     0
  0
SCALE
  5
2DF77
102
{ACAD_REACTORS
330
2DF5A
102
}
330
2DF5A
100
AcDbScale
 70
     0
300
1" = 1'-0"
140
1.0
141
12.0
290
     0
  0
SCALE
  5
2DF78
102
{ACAD_REACTORS
330
2DF5A
102
}
330
2DF5A
100
AcDbScale
 70
     0
300
1-1/2" = 1'-0"
140
1.5
141
12.0
290
     0
  0
SCALE
  5
2DF79
102
{ACAD_REACTORS
330
2DF5A
102
}
330
2DF5A
100
AcDbScale
 70
     0
300
3" = 1'-0"
140
3.0
141
12.0
290
     0
  0
SCALE
  5
2DF7A
102
{ACAD_REACTORS
330
2DF5A
102
}
330
2DF5A
100
AcDbScale
 70
     0
300
6" = 1'-0"
140
6.0
141
12.0
290
     0
  0
SCALE
  5
2DF7B
102
{ACAD_REACTORS
330
2DF5A
102
}
330
2DF5A
100
AcDbScale
 70
     0
300
1'-0" = 1'-0"
140
12.0
141
12.0
290
     0
  0
TABLESTYLE
  5
3344
102
{ACAD_XDICTIONARY
360
477C7
102
}
102
{ACAD_REACTORS
330
3343
102
}
330
3343
100
AcDbTableStyle
  3
Standard
 70
     0
 71
     0
 40
0.06
 41
0.06
280
     0
281
     0
  7
STANDARD
140
0.18
170
     2
 62
     0
 63
     7
283
     0
274
    -2
284
     1
 64
     0
275
    -2
285
     1
 65
     0
276
    -2
286
     1
 66
     0
277
    -2
287
     1
 67
     0
278
    -2
288
     1
 68
     0
279
    -2
289
     1
 69
     0
  7
STANDARD
140
0.25
170
     5
 62
     0
 63
     7
283
     0
274
    -2
284
     1
 64
     0
275
    -2
285
     1
 65
     0
276
    -2
286
     1
 66
     0
277
    -2
287
     1
 67
     0
278
    -2
288
     1
 68
     0
279
    -2
289
     1
 69
     0
  7
STANDARD
140
0.18
170
     5
 62
     0
 63
     7
283
     0
274
    -2
284
     1
 64
     0
275
    -2
285
     1
 65
     0
276
    -2
286
     1
 66
     0
277
    -2
287
     1
 67
     0
278
    -2
288
     1
 68
     0
279
    -2
289
     1
 69
     0
  0
VISUALSTYLE
  5
2DF4F
102
{ACAD_XDICTIONARY
360
7A8FF
102
}
102
{ACAD_REACTORS
330
2DF49
102
}
330
2DF49
100
AcDbVisualStyle
  2

 70
     4
 71
     0
 72
     2
 73
     0
 90
        0
 40
-0.6
 41
-30.0
 62
     5
 63
     7
 74
     1
 91
        4
 64
     7
 65
   257
 75
     1
175
     1
 42
1.0
 92
        0
 66
   257
 43
1.0
 76
     1
 77
     6
 78
     2
 67
     7
 79
     5
170
     0
171
     0
290
     0
174
     0
 93
        1
 44
0.0
173
     0
291
     0
 45
0.0
1001
ACAD
1000
AcDbSavedByObjectVersion
1070
     0
  0
VISUALSTYLE
  5
2DF51
102
{ACAD_XDICTIONARY
360
7A903
102
}
102
{ACAD_REACTORS
330
2DF49
102
}
330
2DF49
100
AcDbVisualStyle
  2

 70
     6
 71
     1
 72
     2
 73
     2
 90
        0
 40
-0.6
 41
-30.0
 62
     5
 63
     7
 74
     2
 91
        2
 64
     7
 65
   257
 75
     2
175
     1
 42
40.0
 92
        0
 66
   257
 43
1.0
 76
     1
 77
     6
 78
     2
 67
     7
 79
     3
170
     0
171
     0
290
     0
174
     0
 93
        1
 44
0.0
173
     0
291
     0
 45
0.0
1001
ACAD
1000
AcDbSavedByObjectVersion
1070
     0
  0
VISUALSTYLE
  5
2DF50
102
{ACAD_XDICTIONARY
360
7A901
102
}
102
{ACAD_REACTORS
330
2DF49
102
}
330
2DF49
100
AcDbVisualStyle
  2

 70
     5
 71
     0
 72
     2
 73
     0
 90
        0
 40
-0.6
 41
-30.0
 62
     5
 63
     7
 74
     1
 91
        4
 64
     7
 65
   257
 75
     1
175
     1
 42
1.0
 92
        0
 66
   257
 43
1.0
 76
     1
 77
     6
 78
     2
 67
     7
 79
     5
170
     0
171
     0
290
     0
174
     0
 93
        1
 44
0.0
173
     0
291
     0
 45
0.0
1001
ACAD
1000
AcDbSavedByObjectVersion
1070
     0
  0
VISUALSTYLE
  5
2DF4E
102
{ACAD_XDICTIONARY
360
7A8FD
102
}
102
{ACAD_REACTORS
330
2DF49
102
}
330
2DF49
100
AcDbVisualStyle
  2

 70
     7
 71
     1
 72
     0
 73
     1
 90
        0
 40
-0.6
 41
-30.0
 62
     5
 63
     7
 74
     0
 91
        4
 64
     7
 65
   257
 75
     1
175
     1
 42
1.0
 92
        8
 66
     7
 43
1.0
 76
     1
 77
     6
 78
     2
 67
     7
 79
     5
170
     0
171
     0
290
     0
174
     0
 93
        1
 44
0.0
173
     0
291
     1
 45
0.0
1001
ACAD
1000
AcDbSavedByObjectVersion
1070
     0
  0
VISUALSTYLE
  5
2DF55
102
{ACAD_XDICTIONARY
360
7A90B
102
}
102
{ACAD_REACTORS
330
2DF49
102
}
330
2DF49
100
AcDbVisualStyle
  2

 70
    12
 71
     2
 72
     2
 73
     0
 90
        0
 40
-0.6
 41
-30.0
 62
     5
 63
     7
 74
     1
 91
        4
 64
     7
 65
   257
 75
     1
175
     1
 42
1.0
 92
        8
 66
     7
 43
1.0
 76
     1
 77
     6
 78
     2
 67
     7
 79
     5
170
     0
171
     0
290
     0
174
     0
 93
        1
 44
50.0
173
     0
291
     1
 45
0.0
1001
ACAD
1000
AcDbSavedByObjectVersion
1070
     0
  0
VISUALSTYLE
  5
2DF59
102
{ACAD_XDICTIONARY
360
7A913
102
}
102
{ACAD_REACTORS
330
2DF49
102
}
330
2DF49
100
AcDbVisualStyle
  2

 70
    16
 71
     2
 72
     2
 73
     3
 90
        0
 40
-0.6
 41
-30.0
 62
     5
 63
     8
 74
     1
 91
        4
 64
     7
 65
   257
 75
     1
175
     1
 42
1.0
 92
        8
 66
     8
 43
1.0
 76
     1
 77
     6
 78
     2
 67
     7
 79
     5
170
     0
171
     0
290
     0
174
     0
 93
        1
 44
0.0
173
     0
291
     1
 45
0.0
1001
ACAD
1000
AcDbSavedByObjectVersion
1070
     0
  0
VISUALSTYLE
  5
2DF52
102
{ACAD_XDICTIONARY
360
7A905
102
}
102
{ACAD_REACTORS
330
2DF49
102
}
330
2DF49
100
AcDbVisualStyle
  2

 70
     9
 71
     3
 72
     2
 73
     0
 90
        0
 40
-0.6
 41
-30.0
 62
     5
 63
     7
 74
     2
 91
        2
 64
     7
 65
   257
 75
     1
175
     1
 42
40.0
 92
        8
 66
     7
 43
1.0
 76
     1
 77
     6
 78
     2
 67
     7
 79
     3
170
     0
171
     0
290
     0
174
     0
 93
        1
 44
0.0
173
     0
291
     0
 45
0.0
1001
ACAD
1000
AcDbSavedByObjectVersion
1070
     0
  0
VISUALSTYLE
  5
2DF54
102
{ACAD_XDICTIONARY
360
7A909
102
}
102
{ACAD_REACTORS
330
2DF49
102
}
330
2DF49
100
AcDbVisualStyle
  2

 70
    11
 71
     2
 72
     2
 73
     0
 90
        0
 40
-0.6
 41
-30.0
 62
     5
 63
     7
 74
     1
 91
        4
 64
     7
 65
   257
 75
     1
175
     1
 42
1.0
 92
        8
 66
     7
 43
1.0
 76
     1
 77
     6
 78
     2
 67
     7
 79
     5
170
     0
171
     0
290
     0
174
     0
 93
        1
 44
-50.0
173
     0
291
     1
 45
0.0
1001
ACAD
1000
AcDbSavedByObjectVersion
1070
     0
  0
VISUALSTYLE
  5
49B26
102
{ACAD_XDICTIONARY
360
7A927
102
}
102
{ACAD_REACTORS
330
2DF49
102
}
330
2DF49
100
AcDbVisualStyle
  2

 70
    22
 71
     2
 72
     2
 73
     0
 90
        0
 40
-0.6
 41
-30.0
 62
     5
 63
     7
 74
     1
 91
        4
 64
     7
 65
   257
 75
     1
175
     1
 42
1.0
 92
        8
 66
     7
 43
1.0
 76
     1
 77
     6
 78
     2
 67
     7
 79
     5
170
     0
171
     0
290
     0
174
     0
 93
        1
 44
0.0
173
     0
291
     1
 45
0.0
1001
ACAD
1000
AcDbSavedByObjectVersion
1070
     0
  0
VISUALSTYLE
  5
2DF58
102
{ACAD_XDICTIONARY
360
7A911
102
}
102
{ACAD_REACTORS
330
2DF49
102
}
330
2DF49
100
AcDbVisualStyle
  2

 70
    15
 71
     2
 72
     2
 73
     0
 90
        0
 40
-0.6
 41
-30.0
 62
     5
 63
     7
 74
     1
 91
        4
 64
     7
 65
   257
 75
     1
175
     1
 42
1.0
 92
        8
 66
     7
 43
1.0
 76
     1
 77
     6
 78
     2
 67
     7
 79
     5
170
     0
171
     0
290
     0
174
     0
 93
        1
 44
0.0
173
     0
291
     1
 45
0.0
1001
ACAD
1000
AcDbSavedByObjectVersion
1070
     0
  0
VISUALSTYLE
  5
2DF4A
102
{ACAD_XDICTIONARY
360
7A8F5
102
}
102
{ACAD_REACTORS
330
2DF49
102
}
330
2DF49
100
AcDbVisualStyle
  2

 70
     0
 71
     2
 72
     1
 73
     1
 90
        2
 40
-0.6
 41
30.0
 62
     5
 63
     7
 74
     0
 91
        4
 64
     7
 65
   257
 75
     1
175
     1
 42
1.0
 92
        8
 66
     7
 43
1.0
 76
     1
 77
     6
 78
     2
 67
     7
 79
     5
170
     0
171
     0
290
     0
174
     0
 93
       13
 44
0.0
173
     0
291
     1
 45
0.0
1001
ACAD
1000
AcDbSavedByObjectVersion
1070
     0
  0
VISUALSTYLE
  5
2DF4B
102
{ACAD_XDICTIONARY
360
7A8F7
102
}
102
{ACAD_REACTORS
330
2DF49
102
}
330
2DF49
100
AcDbVisualStyle
  2

 70
     1
 71
     2
 72
     1
 73
     1
 90
        2
 40
-0.6
 41
30.0
 62
     5
 63
     7
 74
     1
 91
        4
 64
     7
 65
   257
 75
     1
175
     1
 42
1.0
 92
        0
 66
   257
 43
1.0
 76
     1
 77
     6
 78
     2
 67
     7
 79
     5
170
     0
171
     0
290
     0
174
     0
 93
       13
 44
0.0
173
     0
291
     1
 45
0.0
1001
ACAD
1000
AcDbSavedByObjectVersion
1070
     0
  0
VISUALSTYLE
  5
2DF4C
102
{ACAD_XDICTIONARY
360
7A8F9
102
}
102
{ACAD_REACTORS
330
2DF49
102
}
330
2DF49
100
AcDbVisualStyle
  2

 70
     2
 71
     2
 72
     2
 73
     1
 90
        2
 40
-0.6
 41
30.0
 62
     5
 63
     7
 74
     0
 91
        4
 64
     7
 65
   257
 75
     1
175
     1
 42
1.0
 92
        0
 66
     7
 43
1.0
 76
     1
 77
     6
 78
     2
 67
     7
 79
     5
170
     0
171
     0
290
     0
174
     0
 93
       13
 44
0.0
173
     0
291
     1
 45
0.0
1001
ACAD
1000
AcDbSavedByObjectVersion
1070
     0
  0
VISUALSTYLE
  5
2DF4D
102
{ACAD_XDICTIONARY
360
7A8FB
102
}
102
{ACAD_REACTORS
330
2DF49
102
}
330
2DF49
100
AcDbVisualStyle
  2

 70
     3
 71
     2
 72
     2
 73
     1
 90
        2
 40
-0.6
 41
30.0
 62
     5
 63
     7
 74
     1
 91
        4
 64
     7
 65
   257
 75
     1
175
     1
 42
1.0
 92
        0
 66
   257
 43
1.0
 76
     1
 77
     6
 78
     2
 67
     7
 79
     5
170
     0
171
     0
290
     0
174
     0
 93
       13
 44
0.0
173
     0
291
     1
 45
0.0
1001
ACAD
1000
AcDbSavedByObjectVersion
1070
     0
  0
VISUALSTYLE
  5
49B1E
102
{ACAD_XDICTIONARY
360
7A917
102
}
102
{ACAD_REACTORS
330
2DF49
102
}
330
2DF49
100
AcDbVisualStyle
  2

 70
     6
 71
     1
 72
     2
 73
     2
 90
        0
 40
-0.6
 41
-30.0
 62
     5
 63
     7
 74
     2
 91
        2
 64
     7
 65
   257
 75
     2
175
     1
 42
40.0
 92
        0
 66
   257
 43
1.0
 76
     1
 77
     6
 78
     2
 67
     7
 79
     3
170
     0
171
     0
290
     0
174
     0
 93
        1
 44
0.0
173
     0
291
     0
 45
0.0
1001
ACAD
1000
AcDbSavedByObjectVersion
1070
     0
  0
VISUALSTYLE
  5
49B24
102
{ACAD_XDICTIONARY
360
7A923
102
}
102
{ACAD_REACTORS
330
2DF49
102
}
330
2DF49
100
AcDbVisualStyle
  2

 70
    20
 71
     2
 72
     2
 73
     0
 90
        0
 40
-0.6
 41
-30.0
 62
     5
 63
     7
 74
     1
 91
        4
 64
     7
 65
   257
 75
     1
175
     1
 42
1.0
 92
       10
 66
     7
 43
1.0
 76
     1
 77
     6
 78
     2
 67
     7
 79
     5
170
     0
171
     0
290
     0
174
     0
 93
        1
 44
0.0
173
     0
291
     1
 45
0.0
1001
ACAD
1000
AcDbSavedByObjectVersion
1070
     0
  0
VISUALSTYLE
  5
2DF57
102
{ACAD_XDICTIONARY
360
7A90F
102
}
102
{ACAD_REACTORS
330
2DF49
102
}
330
2DF49
100
AcDbVisualStyle
  2

 70
    14
 71
     2
 72
     2
 73
     0
 90
        0
 40
-0.6
 41
-30.0
 62
     5
 63
     7
 74
     1
 91
        4
 64
     7
 65
   257
 75
     7
175
     7
 42
1.0
 92
        8
 66
     7
 43
1.0
 76
     1
 77
     6
 78
     2
 67
     7
 79
     5
170
     0
171
     0
290
     0
174
     0
 93
        1
 44
0.0
173
     0
291
     1
 45
0.0
1001
ACAD
1000
AcDbSavedByObjectVersion
1070
     0
  0
VISUALSTYLE
  5
49B25
102
{ACAD_XDICTIONARY
360
7A925
102
}
102
{ACAD_REACTORS
330
2DF49
102
}
330
2DF49
100
AcDbVisualStyle
  2

 70
    21
 71
     2
 72
     2
 73
     0
 90
        0
 40
-0.6
 41
-30.0
 62
     5
 63
     7
 74
     1
 91
        4
 64
     7
 65
   257
 75
     1
175
     1
 42
1.0
 92
        9
 66
     7
 43
1.0
 76
     1
 77
     6
 78
     2
 67
     7
 79
     5
170
     0
171
     0
290
     0
174
     0
 93
        1
 44
0.0
173
     0
291
     1
 45
0.0
1001
ACAD
1000
AcDbSavedByObjectVersion
1070
     0
  0
VISUALSTYLE
  5
2DF53
102
{ACAD_XDICTIONARY
360
7A907
102
}
102
{ACAD_REACTORS
330
2DF49
102
}
330
2DF49
100
AcDbVisualStyle
  2

 70
     8
 71
     2
 72
     2
 73
     0
 90
        0
 40
-0.6
 41
-30.0
 62
     5
 63
     7
 74
     1
 91
        0
 64
     7
 65
   257
 75
     1
175
     1
 42
1.0
 92
        8
 66
     8
 43
1.0
 76
     1
 77
     6
 78
     2
 67
     7
 79
     5
170
     0
171
     0
290
     0
174
     0
 93
       13
 44
0.0
173
     0
291
     0
 45
0.0
1001
ACAD
1000
AcDbSavedByObjectVersion
1070
     0
  0
VISUALSTYLE
  5
49B23
102
{ACAD_XDICTIONARY
360
7A921
102
}
102
{ACAD_REACTORS
330
2DF49
102
}
330
2DF49
100
AcDbVisualStyle
  2

 70
    27
 71
     2
 72
     2
 73
     1
 90
        2
 40
-0.6
 41
30.0
 62
     5
 63
     7
 74
     0
 91
        4
 64
     7
 65
   257
 75
     1
175
     1
 42
1.0
 92
        8
 66
   257
 43
1.0
 76
     1
 77
     6
 78
     2
 67
     8
 79
     3
170
     0
171
     0
290
     0
174
     0
 93
        5
 44
0.0
173
     0
291
     0
 45
0.0
1001
ACAD
1000
AcDbSavedByObjectVersion
1070
     0
  0
VISUALSTYLE
  5
49B22
102
{ACAD_XDICTIONARY
360
7A91F
102
}
102
{ACAD_REACTORS
330
2DF49
102
}
330
2DF49
100
AcDbVisualStyle
  2

 70
    26
 71
     2
 72
     2
 73
     1
 90
        2
 40
-0.6
 41
30.0
 62
     5
 63
     7
 74
     1
 91
       10
 64
     7
 65
   257
 75
     2
175
     1
 42
1.0
 92
        8
 66
   257
 43
1.0
 76
     1
 77
     6
 78
     2
 67
     7
 79
     3
170
     0
171
     0
290
     0
174
     0
 93
        5
 44
0.0
173
     0
291
     0
 45
0.0
1001
ACAD
1000
AcDbSavedByObjectVersion
1070
     0
  0
VISUALSTYLE
  5
49B1F
102
{ACAD_XDICTIONARY
360
7A919
102
}
102
{ACAD_REACTORS
330
2DF49
102
}
330
2DF49
100
AcDbVisualStyle
  2

 70
    23
 71
     2
 72
     2
 73
     3
 90
        0
 40
-0.6
 41
-30.0
 62
     5
 63
     7
 74
     2
 91
        2
 64
     7
 65
     7
 75
     1
175
     1
 42
40.0
 92
        8
 66
     7
 43
1.0
 76
     1
 77
     6
 78
     2
 67
     7
 79
     3
170
     0
171
     0
290
     0
174
     0
 93
        1
 44
0.0
173
     0
291
     0
 45
0.0
1001
ACAD
1000
AcDbSavedByObjectVersion
1070
     0
  0
VISUALSTYLE
  5
49B20
102
{ACAD_XDICTIONARY
360
7A91B
102
}
102
{ACAD_REACTORS
330
2DF49
102
}
330
2DF49
100
AcDbVisualStyle
  2

 70
    24
 71
     1
 72
     2
 73
     2
 90
        0
 40
-0.6
 41
-30.0
 62
     5
 63
     7
 74
     2
 91
        2
 64
     7
 65
     7
 75
     1
175
     1
 42
40.0
 92
       11
 66
     7
 43
1.0
 76
     1
 77
     6
 78
     2
 67
     7
 79
     6
170
     0
171
     0
290
     0
174
     0
 93
        1
 44
0.0
173
     0
291
     0
 45
0.0
1001
ACAD
1000
AcDbSavedByObjectVersion
1070
     0
  0
VISUALSTYLE
  5
2DF56
102
{ACAD_XDICTIONARY
360
7A90D
102
}
102
{ACAD_REACTORS
330
2DF49
102
}
330
2DF49
100
AcDbVisualStyle
  2

 70
    13
 71
     2
 72
     2
 73
     0
 90
        0
 40
-0.6
 41
-30.0
 62
     5
 63
     7
 74
     1
 91
        4
 64
     7
 65
   257
 75
     1
175
     1
 42
1.0
 92
       12
 66
     7
 43
1.0
 76
     1
 77
     6
 78
     2
 67
     7
 79
     5
170
     0
171
     0
290
     0
174
     0
 93
        1
 44
0.0
173
     0
291
     1
 45
0.0
1001
ACAD
1000
AcDbSavedByObjectVersion
1070
     0
  0
VISUALSTYLE
  5
49B1D
102
{ACAD_XDICTIONARY
360
7A915
102
}
102
{ACAD_REACTORS
330
2DF49
102
}
330
2DF49
100
AcDbVisualStyle
  2

 70
     5
 71
     0
 72
     2
 73
     0
 90
        0
 40
-0.6
 41
-30.0
 62
     5
 63
     7
 74
     1
 91
        4
 64
     7
 65
   257
 75
     1
175
     1
 42
1.0
 92
        0
 66
   257
 43
1.0
 76
     1
 77
     6
 78
     2
 67
     7
 79
     3
170
     0
171
     0
290
     0
174
     0
 93
        1
 44
0.0
173
     0
291
     0
 45
0.0
1001
ACAD
1000
AcDbSavedByObjectVersion
1070
     0
  0
VISUALSTYLE
  5
49B21
102
{ACAD_XDICTIONARY
360
7A91D
102
}
102
{ACAD_REACTORS
330
2DF49
102
}
330
2DF49
100
AcDbVisualStyle
  2

 70
    25
 71
     2
 72
     2
 73
     1
 90
        1
 40
0.5
 41
-30.0
 62
     5
 63
     7
 74
     1
 91
        0
 64
     7
 65
   257
 75
     1
175
     1
 42
1.0
 92
        8
 66
     7
 43
1.0
 76
     1
 77
     6
 78
     2
 67
     7
 79
     3
170
     0
171
     0
290
     0
174
     0
 93
       13
 44
0.0
173
     0
291
     0
 45
0.0
1001
ACAD
1000
AcDbSavedByObjectVersion
1070
     0
  0
DICTIONARYVAR
  5
47819
102
{ACAD_REACTORS
330
8875
102
}
330
8875
100
DictionaryVariables
280
     0
  1
1:1
  0
DICTIONARYVAR
  5
47818
102
{ACAD_REACTORS
330
8875
102
}
330
8875
100
DictionaryVariables
280
     0
  1
STANDARD
  0
DICTIONARYVAR
  5
8876
102
{ACAD_REACTORS
330
8875
102
}
330
8875
100
DictionaryVariables
280
     0
  1
STANDARD
  0
DICTIONARYVAR
  5
8930
102
{ACAD_REACTORS
330
8875
102
}
330
8875
100
DictionaryVariables
280
     0
  1
1
  0
DICTIONARYVAR
  5
4781B
102
{ACAD_REACTORS
330
8875
102
}
330
8875
100
DictionaryVariables
280
     0
  1
0
  0
DICTIONARYVAR
  5
8931
102
{ACAD_REACTORS
330
8875
102
}
330
8875
100
DictionaryVariables
280
     0
  1

  0
DICTIONARYVAR
  5
4781A
102
{ACAD_REACTORS
330
8875
102
}
330
8875
100
DictionaryVariables
280
     0
  1
127
  0
DICTIONARYVAR
  5
7A8A8
102
{ACAD_REACTORS
330
8875
102
}
330
8875
100
DictionaryVariables
280
     0
  1
2
  0
XRECORD
  5
4AC28
102
{ACAD_REACTORS
330
4AC26
102
}
330
4AC26
100
AcDbXrecord
280
     1
330
0
330
0
330
0
330
0
330
0
330
0
330
0
330
0
330
0
330
0
330
0
330
0
330
0
330
0
330
0
330
0
330
0
330
0
330
0
330
0
330
0
330
0
330
0
330
0
330
0
330
0
330
0
330
0
330
0
330
0
330
0
330
0
330
0
330
0
330
0
330
0
330
0
330
0
330
0
330
0
330
0
330
0
330
0
330
0
330
0
330
0
330
0
330
0
330
0
330
0
330
0
330
0
330
0
330
0
330
0
330
0
330
0
330
0
330
0
330
0
330
0
330
0
330
0
330
0
330
0
330
0
330
0
330
0
330
0
330
0
330
0
330
0
330
0
330
0
330
0
330
0
330
0
330
0
330
0
330
0
330
0
330
0
330
0
330
0
330
0
330
0
330
0
330
0
330
0
330
0
330
0
330
0
330
0
330
0
330
0
330
0
330
0
330
0
330
0
330
0
330
0
330
0
330
0
330
0
330
0
330
0
330
0
330
0
330
0
330
0
330
0
330
0
330
0
330
0
330
0
330
0
330
0
330
0
330
0
330
0
330
0
330
0
330
0
330
0
330
0
330
0
330
0
330
0
330
0
330
0
330
0
330
0
330
0
330
0
330
0
330
0
330
0
330
0
330
0
330
0
330
0
330
0
330
0
330
0
330
0
330
0
330
88C8
330
88CC
330
0
330
0
330
0
330
0
330
0
330
0
330
0
330
0
330
0
330
0
330
0
330
0
330
0
330
0
330
0
330
0
330
0
330
0
330
0
330
0
330
0
330
0
330
0
330
0
330
0
330
0
330
0
330
0
330
0
330
0
330
0
330
0
330
0
330
0
330
0
330
0
330
0
330
0
330
0
330
0
330
0
330
0
330
0
330
0
330
0
330
0
330
0
330
0
330
0
330
0
330
0
330
0
330
0
330
0
330
0
330
0
330
0
330
0
330
0
330
0
330
0
330
0
330
0
330
0
330
0
330
0
330
0
330
0
330
0
330
0
330
0
330
0
330
0
330
0
330
0
330
0
330
0
330
0
330
0
330
0
330
0
330
0
330
0
330
0
330
0
330
0
330
0
330
0
330
0
330
0
330
0
330
0
330
0
330
0
330
0
330
0
330
0
330
0
330
0
330
0
330
0
330
0
330
0
330
0
330
0
330
0
330
0
330
0
330
0
330
0
330
0
330
0
330
0
330
0
330
0
330
0
330
0
330
0
330
0
330
0
330
0
330
0
330
0
330
0
330
0
330
0
330
0
330
0
330
0
330
0
330
0
330
0
330
0
330
0
330
0
330
0
330
0
330
0
330
0
330
0
330
0
330
0
330
0
330
0
330
0
330
0
330
0
330
0
330
0
330
0
330
0
330
0
330
0
330
0
330
0
330
0
330
0
330
0
330
0
330
0
330
0
330
0
330
0
330
0
330
0
330
0
330
0
330
0
330
0
330
0
330
0
330
0
330
0
330
0
330
0
330
0
330
0
330
0
330
0
330
0
330
0
330
0
330
0
330
0
330
0
330
0
330
0
330
0
330
0
330
0
330
0
330
0
330
0
330
0
330
0
330
0
330
0
330
0
330
0
330
0
330
0
330
0
330
0
330
0
330
0
330
0
330
0
330
0
330
0
330
0
330
0
330
0
330
0
330
0
330
0
330
0
330
0
330
0
330
0
330
0
330
0
330
0
330
0
330
0
330
0
330
0
330
0
330
0
330
0
330
0
330
0
330
0
330
0
330
0
330
0
330
0
330
0
330
0
330
0
330
0
330
0
330
0
330
0
330
0
330
0
330
0
330
0
330
0
330
0
330
0
330
0
330
0
330
0
330
0
330
0
330
0
330
0
330
0
330
0
330
0
330
0
330
0
330
0
330
0
330
0
330
0
330
0
330
0
330
0
330
0
330
0
330
0
330
0
330
0
330
0
330
0
330
0
330
0
330
0
330
0
330
0
330
0
330
0
330
0
330
0
330
0
330
0
330
0
330
0
330
0
330
0
330
0
330
0
330
0
330
0
330
0
330
0
330
0
330
0
330
0
330
0
330
0
330
0
330
0
330
0
330
0
330
0
330
0
330
0
330
0
330
0
330
0
330
0
330
0
330
0
330
0
330
0
330
0
330
0
330
0
330
0
330
0
330
0
330
0
330
0
330
0
330
0
330
0
330
0
330
0
330
0
330
0
330
0
330
0
330
0
330
0
330
0
330
0
330
0
330
0
330
0
330
0
330
0
330
0
330
0
330
0
330
0
330
0
330
0
330
0
330
0
330
0
330
0
330
0
330
0
330
0
330
0
330
0
330
0
330
0
330
0
330
0
330
0
330
0
330
0
330
0
330
0
330
0
330
0
330
0
330
0
330
0
330
0
330
0
330
0
330
0
330
0
330
0
330
0
330
0
330
0
330
0
330
0
330
0
330
0
330
0
330
0
330
0
330
0
330
0
330
0
330
0
330
0
330
0
330
0
330
0
  0
DICTIONARY
  5
7A8EE
330
1E
100
AcDbDictionary
280
     1
281
     1
  3
ACAD_XREC_ROUNDTRIP
360
7A8EF
  0
DICTIONARY
  5
7A8F2
330
26
100
AcDbDictionary
280
     1
281
     1
  3
ACAD_XREC_ROUNDTRIP
360
7A8F3
  0
DICTIONARY
  5
7A8F0
330
22
100
AcDbDictionary
280
     1
281
     1
  3
ACAD_XREC_ROUNDTRIP
360
7A8F1
  0
DICTIONARY
  5
2DF42
330
2DF41
100
AcDbDictionary
280
     1
281
     1
  3
ACAD_XREC_ROUNDTRIP
360
7A868
  3
BUMPTILE
360
2DF44
  3
DIFFUSETILE
360
2DF43
  3
OPACITYTILE
360
2DF47
  3
REFLECTIONTILE
360
2DF46
  3
REFRACTIONTILE
360
2DF48
  3
SPECULARTILE
360
2DF45
  0
DICTIONARY
  5
2DF3A
330
2DF39
100
AcDbDictionary
280
     1
281
     1
  3
ACAD_XREC_ROUNDTRIP
360
7A867
  3
BUMPTILE
360
2DF3C
  3
DIFFUSETILE
360
2DF3B
  3
OPACITYTILE
360
2DF3F
  3
REFLECTIONTILE
360
2DF3E
  3
REFRACTIONTILE
360
2DF40
  3
SPECULARTILE
360
2DF3D
  0
DICTIONARY
  5
7A865
330
12D2E
100
AcDbDictionary
280
     1
281
     1
  3
ACAD_XREC_ROUNDTRIP
360
7A866
  0
DICTIONARY
  5
477C7
330
3344
100
AcDbDictionary
280
     1
281
     1
  3
ACAD_ROUNDTRIP_2008_TABLESTYLE_CELLSTYLEMAP
360
7A8E9
  3
ACAD_XREC_ROUNDTRIP
360
7A8F4
  0
DICTIONARY
  5
7A8FF
330
2DF4F
100
AcDbDictionary
280
     1
281
     1
  3
ACAD_XREC_ROUNDTRIP
360
7A900
  0
DICTIONARY
  5
7A903
330
2DF51
100
AcDbDictionary
280
     1
281
     1
  3
ACAD_XREC_ROUNDTRIP
360
7A904
  0
DICTIONARY
  5
7A901
330
2DF50
100
AcDbDictionary
280
     1
281
     1
  3
ACAD_XREC_ROUNDTRIP
360
7A902
  0
DICTIONARY
  5
7A8FD
330
2DF4E
100
AcDbDictionary
280
     1
281
     1
  3
ACAD_XREC_ROUNDTRIP
360
7A8FE
  0
DICTIONARY
  5
7A90B
330
2DF55
100
AcDbDictionary
280
     1
281
     1
  3
ACAD_XREC_ROUNDTRIP
360
7A90C
  0
DICTIONARY
  5
7A913
330
2DF59
100
AcDbDictionary
280
     1
281
     1
  3
ACAD_XREC_ROUNDTRIP
360
7A914
  0
DICTIONARY
  5
7A905
330
2DF52
100
AcDbDictionary
280
     1
281
     1
  3
ACAD_XREC_ROUNDTRIP
360
7A906
  0
DICTIONARY
  5
7A909
330
2DF54
100
AcDbDictionary
280
     1
281
     1
  3
ACAD_XREC_ROUNDTRIP
360
7A90A
  0
DICTIONARY
  5
7A927
330
49B26
100
AcDbDictionary
280
     1
281
     1
  3
ACAD_XREC_ROUNDTRIP
360
7A928
  0
DICTIONARY
  5
7A911
330
2DF58
100
AcDbDictionary
280
     1
281
     1
  3
ACAD_XREC_ROUNDTRIP
360
7A912
  0
DICTIONARY
  5
7A8F5
330
2DF4A
100
AcDbDictionary
280
     1
281
     1
  3
ACAD_XREC_ROUNDTRIP
360
7A8F6
  0
DICTIONARY
  5
7A8F7
330
2DF4B
100
AcDbDictionary
280
     1
281
     1
  3
ACAD_XREC_ROUNDTRIP
360
7A8F8
  0
DICTIONARY
  5
7A8F9
330
2DF4C
100
AcDbDictionary
280
     1
281
     1
  3
ACAD_XREC_ROUNDTRIP
360
7A8FA
  0
DICTIONARY
  5
7A8FB
330
2DF4D
100
AcDbDictionary
280
     1
281
     1
  3
ACAD_XREC_ROUNDTRIP
360
7A8FC
  0
DICTIONARY
  5
7A917
330
49B1E
100
AcDbDictionary
280
     1
281
     1
  3
ACAD_XREC_ROUNDTRIP
360
7A918
  0
DICTIONARY
  5
7A923
330
49B24
100
AcDbDictionary
280
     1
281
     1
  3
ACAD_XREC_ROUNDTRIP
360
7A924
  0
DICTIONARY
  5
7A90F
330
2DF57
100
AcDbDictionary
280
     1
281
     1
  3
ACAD_XREC_ROUNDTRIP
360
7A910
  0
DICTIONARY
  5
7A925
330
49B25
100
AcDbDictionary
280
     1
281
     1
  3
ACAD_XREC_ROUNDTRIP
360
7A926
  0
DICTIONARY
  5
7A907
330
2DF53
100
AcDbDictionary
280
     1
281
     1
  3
ACAD_XREC_ROUNDTRIP
360
7A908
  0
DICTIONARY
  5
7A921
330
49B23
100
AcDbDictionary
280
     1
281
     1
  3
ACAD_XREC_ROUNDTRIP
360
7A922
  0
DICTIONARY
  5
7A91F
330
49B22
100
AcDbDictionary
280
     1
281
     1
  3
ACAD_XREC_ROUNDTRIP
360
7A920
  0
DICTIONARY
  5
7A919
330
49B1F
100
AcDbDictionary
280
     1
281
     1
  3
ACAD_XREC_ROUNDTRIP
360
7A91A
  0
DICTIONARY
  5
7A91B
330
49B20
100
AcDbDictionary
280
     1
281
     1
  3
ACAD_XREC_ROUNDTRIP
360
7A91C
  0
DICTIONARY
  5
7A90D
330
2DF56
100
AcDbDictionary
280
     1
281
     1
  3
ACAD_XREC_ROUNDTRIP
360
7A90E
  0
DICTIONARY
  5
7A915
330
49B1D
100
AcDbDictionary
280
     1
281
     1
  3
ACAD_XREC_ROUNDTRIP
360
7A916
  0
DICTIONARY
  5
7A91D
330
49B21
100
AcDbDictionary
280
     1
281
     1
  3
ACAD_XREC_ROUNDTRIP
360
7A91E
  0
XRECORD
  5
7A8EF
102
{ACAD_REACTORS
330
7A8EE
102
}
330
7A8EE
100
AcDbXrecord
280
     1
102
SHADEPLOT
 70
     0
102
SHADEPLOTRESLEVEL
 70
     2
102
SHADEPLOTCUSTOMDPI
 70
   300
  0
XRECORD
  5
7A8F3
102
{ACAD_REACTORS
330
7A8F2
102
}
330
7A8F2
100
AcDbXrecord
280
     1
102
SHADEPLOT
 70
     0
102
SHADEPLOTRESLEVEL
 70
     2
102
SHADEPLOTCUSTOMDPI
 70
   300
  0
XRECORD
  5
7A8F1
102
{ACAD_REACTORS
330
7A8F0
102
}
330
7A8F0
100
AcDbXrecord
280
     1
102
SHADEPLOT
 70
     0
102
SHADEPLOTRESLEVEL
 70
     2
102
SHADEPLOTCUSTOMDPI
 70
   300
  0
XRECORD
  5
7A868
102
{ACAD_REACTORS
330
2DF42
102
}
330
2DF42
100
AcDbXrecord
280
     1
102
MATERIAL
148
0.0
149
0.0
149
0.0
 93
        0
 94
      127
282
     0
 72
     0
 77
     0
171
     0
175
     0
179
     0
273
     0
  0
XRECORD
  5
2DF44
102
{ACAD_REACTORS
330
2DF42
102
}
330
2DF42
100
AcDbXrecord
280
     1
270
     1
271
     1
  0
XRECORD
  5
2DF43
102
{ACAD_REACTORS
330
2DF42
102
}
330
2DF42
100
AcDbXrecord
280
     1
270
     1
271
     1
  0
XRECORD
  5
2DF47
102
{ACAD_REACTORS
330
2DF42
102
}
330
2DF42
100
AcDbXrecord
280
     1
270
     1
271
     1
  0
XRECORD
  5
2DF46
102
{ACAD_REACTORS
330
2DF42
102
}
330
2DF42
100
AcDbXrecord
280
     1
270
     1
271
     1
  0
XRECORD
  5
2DF48
102
{ACAD_REACTORS
330
2DF42
102
}
330
2DF42
100
AcDbXrecord
280
     1
270
     1
271
     1
  0
XRECORD
  5
2DF45
102
{ACAD_REACTORS
330
2DF42
102
}
330
2DF42
100
AcDbXrecord
280
     1
270
     1
271
     1
  0
XRECORD
  5
7A867
102
{ACAD_REACTORS
330
2DF3A
102
}
330
2DF3A
100
AcDbXrecord
280
     1
102
MATERIAL
148
0.0
149
0.0
149
0.0
 93
        0
 94
      127
282
     0
 72
     0
 77
     0
171
     0
175
     0
179
     0
273
     0
  0
XRECORD
  5
2DF3C
102
{ACAD_REACTORS
330
2DF3A
102
}
330
2DF3A
100
AcDbXrecord
280
     1
270
     1
271
     1
  0
XRECORD
  5
2DF3B
102
{ACAD_REACTORS
330
2DF3A
102
}
330
2DF3A
100
AcDbXrecord
280
     1
270
     1
271
     1
  0
XRECORD
  5
2DF3F
102
{ACAD_REACTORS
330
2DF3A
102
}
330
2DF3A
100
AcDbXrecord
280
     1
270
     1
271
     1
  0
XRECORD
  5
2DF3E
102
{ACAD_REACTORS
330
2DF3A
102
}
330
2DF3A
100
AcDbXrecord
280
     1
270
     1
271
     1
  0
XRECORD
  5
2DF40
102
{ACAD_REACTORS
330
2DF3A
102
}
330
2DF3A
100
AcDbXrecord
280
     1
270
     1
271
     1
  0
XRECORD
  5
2DF3D
102
{ACAD_REACTORS
330
2DF3A
102
}
330
2DF3A
100
AcDbXrecord
280
     1
270
     1
271
     1
  0
XRECORD
  5
7A866
102
{ACAD_REACTORS
330
7A865
102
}
330
7A865
100
AcDbXrecord
280
     1
102
MATERIAL
148
0.0
149
0.0
149
0.0
 93
        0
 94
      127
282
     0
 72
     1
 77
     1
171
     1
175
     1
179
     1
273
     0
  0
CELLSTYLEMAP
  5
7A8E9
102
{ACAD_REACTORS
330
477C7
102
}
330
477C7
100
AcDbCellStyleMap
 90
        3
300
CELLSTYLE
  1
TABLEFORMAT_BEGIN
 90
        5
170
     1
 91
        0
 92
    32768
 62
   257
 93
        1
300
CONTENTFORMAT
  1
CONTENTFORMAT_BEGIN
 90
        0
 91
        0
 92
        4
 93
        0
300

 40
0.0
140
1.0
 94
        5
 62
     0
340
11
144
0.25
309
CONTENTFORMAT_END
171
     1
301
MARGIN
  1
CELLMARGIN_BEGIN
 40
0.06
 40
0.06
 40
0.06
 40
0.06
 40
0.18
 40
0.18
309
CELLMARGIN_END
 94
        6
 95
        1
302
GRIDFORMAT
  1
GRIDFORMAT_BEGIN
 90
        0
 91
        1
 62
     0
 92
       -2
340
0
 93
        0
 40
0.045
309
GRIDFORMAT_END
 95
        2
302
GRIDFORMAT
  1
GRIDFORMAT_BEGIN
 90
        0
 91
        1
 62
     0
 92
       -2
340
0
 93
        0
 40
0.045
309
GRIDFORMAT_END
 95
        4
302
GRIDFORMAT
  1
GRIDFORMAT_BEGIN
 90
        0
 91
        1
 62
     0
 92
       -2
340
0
 93
        0
 40
0.045
309
GRIDFORMAT_END
 95
        8
302
GRIDFORMAT
  1
GRIDFORMAT_BEGIN
 90
        0
 91
        1
 62
     0
 92
       -2
340
0
 93
        0
 40
0.045
309
GRIDFORMAT_END
 95
       16
302
GRIDFORMAT
  1
GRIDFORMAT_BEGIN
 90
        0
 91
        1
 62
     0
 92
       -2
340
0
 93
        0
 40
0.045
309
GRIDFORMAT_END
 95
       32
302
GRIDFORMAT
  1
GRIDFORMAT_BEGIN
 90
        0
 91
        1
 62
     0
 92
       -2
340
0
 93
        0
 40
0.045
309
GRIDFORMAT_END
309
TABLEFORMAT_END
  1
CELLSTYLE_BEGIN
 90
        1
 91
        1
300
_TITLE
309
CELLSTYLE_END
300
CELLSTYLE
  1
TABLEFORMAT_BEGIN
 90
        5
170
     1
 91
        0
 92
        0
 62
   257
 93
        1
300
CONTENTFORMAT
  1
CONTENTFORMAT_BEGIN
 90
        0
 91
        0
 92
        4
 93
        0
300

 40
0.0
140
1.0
 94
        5
 62
     0
340
11
144
0.18
309
CONTENTFORMAT_END
171
     1
301
MARGIN
  1
CELLMARGIN_BEGIN
 40
0.06
 40
0.06
 40
0.06
 40
0.06
 40
0.18
 40
0.18
309
CELLMARGIN_END
 94
        6
 95
        1
302
GRIDFORMAT
  1
GRIDFORMAT_BEGIN
 90
        0
 91
        1
 62
     0
 92
       -2
340
0
 93
        0
 40
0.045
309
GRIDFORMAT_END
 95
        2
302
GRIDFORMAT
  1
GRIDFORMAT_BEGIN
 90
        0
 91
        1
 62
     0
 92
       -2
340
0
 93
        0
 40
0.045
309
GRIDFORMAT_END
 95
        4
302
GRIDFORMAT
  1
GRIDFORMAT_BEGIN
 90
        0
 91
        1
 62
     0
 92
       -2
340
0
 93
        0
 40
0.045
309
GRIDFORMAT_END
 95
        8
302
GRIDFORMAT
  1
GRIDFORMAT_BEGIN
 90
        0
 91
        1
 62
     0
 92
       -2
340
0
 93
        0
 40
0.045
309
GRIDFORMAT_END
 95
       16
302
GRIDFORMAT
  1
GRIDFORMAT_BEGIN
 90
        0
 91
        1
 62
     0
 92
       -2
340
0
 93
        0
 40
0.045
309
GRIDFORMAT_END
 95
       32
302
GRIDFORMAT
  1
GRIDFORMAT_BEGIN
 90
        0
 91
        1
 62
     0
 92
       -2
340
0
 93
        0
 40
0.045
309
GRIDFORMAT_END
309
TABLEFORMAT_END
  1
CELLSTYLE_BEGIN
 90
        2
 91
        1
300
_HEADER
309
CELLSTYLE_END
300
CELLSTYLE
  1
TABLEFORMAT_BEGIN
 90
        5
170
     1
 91
        0
 92
        0
 62
   257
 93
        1
300
CONTENTFORMAT
  1
CONTENTFORMAT_BEGIN
 90
        0
 91
        0
 92
        4
 93
        0
300

 40
0.0
140
1.0
 94
        2
 62
     0
340
11
144
0.18
309
CONTENTFORMAT_END
171
     1
301
MARGIN
  1
CELLMARGIN_BEGIN
 40
0.06
 40
0.06
 40
0.06
 40
0.06
 40
0.18
 40
0.18
309
CELLMARGIN_END
 94
        6
 95
        1
302
GRIDFORMAT
  1
GRIDFORMAT_BEGIN
 90
        0
 91
        1
 62
     0
 92
       -2
340
0
 93
        0
 40
0.045
309
GRIDFORMAT_END
 95
        2
302
GRIDFORMAT
  1
GRIDFORMAT_BEGIN
 90
        0
 91
        1
 62
     0
 92
       -2
340
0
 93
        0
 40
0.045
309
GRIDFORMAT_END
 95
        4
302
GRIDFORMAT
  1
GRIDFORMAT_BEGIN
 90
        0
 91
        1
 62
     0
 92
       -2
340
0
 93
        0
 40
0.045
309
GRIDFORMAT_END
 95
        8
302
GRIDFORMAT
  1
GRIDFORMAT_BEGIN
 90
        0
 91
        1
 62
     0
 92
       -2
340
0
 93
        0
 40
0.045
309
GRIDFORMAT_END
 95
       16
302
GRIDFORMAT
  1
GRIDFORMAT_BEGIN
 90
        0
 91
        1
 62
     0
 92
       -2
340
0
 93
        0
 40
0.045
309
GRIDFORMAT_END
 95
       32
302
GRIDFORMAT
  1
GRIDFORMAT_BEGIN
 90
        0
 91
        1
 62
     0
 92
       -2
340
0
 93
        0
 40
0.045
309
GRIDFORMAT_END
309
TABLEFORMAT_END
  1
CELLSTYLE_BEGIN
 90
        3
 91
        2
300
_DATA
309
CELLSTYLE_END
  0
XRECORD
  5
7A8F4
102
{ACAD_REACTORS
330
477C7
102
}
330
477C7
100
AcDbXrecord
280
     1
102
ACAD_ROUNDTRIP_PRE2007_TABLESTYLE
 90
        4
 91
        0
  1

 92
        4
 93
        0
  2

 94
        4
 95
        0
  3

  0
XRECORD
  5
7A900
102
{ACAD_REACTORS
330
7A8FF
102
}
330
7A8FF
100
AcDbXrecord
280
     1
102
RTVSPropertyOp0
 70
     1
102
RTVSPropertyOp1
 70
     1
102
RTVSPropertyOp2
 70
     1
102
RTVSPropertyOp3
 70
     1
102
RTVSPropertyOp4
 70
     1
102
RTVSPropertyOp5
 70
     1
102
RTVSPropertyOp6
 70
     1
102
RTVSPropertyOp7
 70
     1
102
RTVSPropertyOp8
 70
     1
102
RTVSPropertyOp9
 70
     1
102
RTVSPropertyOp10
 70
     1
102
RTVSPropertyOp11
 70
     1
102
RTVSPropertyOp12
 70
     1
102
RTVSPropertyOp13
 70
     1
102
RTVSPropertyOp14
 70
     1
102
RTVSPropertyOp15
 70
     1
102
RTVSPropertyOp16
 70
     1
102
RTVSPropertyOp17
 70
     1
102
RTVSPropertyOp18
 70
     1
102
RTVSPropertyOp19
 70
     1
102
RTVSPropertyOp20
 70
     1
102
RTVSPropertyOp21
 70
     1
102
RTVSPropertyOp22
 70
     1
102
RTVSPropertyOp23
 70
     1
102
RTVSPropertyOp24
 70
     1
102
RTVSPropertyOp25
 70
     1
102
RTVSPropertyOp26
 70
     1
102
RTVSPropertyOp27
 70
     1
102
RTVSPropertyOp28
 70
     1
102
RTVSPropertyOp29
 70
     1
102
RTVSPropertyOp30
 70
     1
102
RTVSPropertyOp31
 70
     1
102
RTVSPropertyOp32
 70
     1
  0
XRECORD
  5
7A904
102
{ACAD_REACTORS
330
7A903
102
}
330
7A903
100
AcDbXrecord
280
     1
102
RTVSPropertyOp0
 70
     1
102
RTVSPropertyOp1
 70
     1
102
RTVSPropertyOp2
 70
     1
102
RTVSPropertyOp3
 70
     1
102
RTVSPropertyOp4
 70
     1
102
RTVSPropertyOp5
 70
     1
102
RTVSPropertyOp6
 70
     1
102
RTVSPropertyOp7
 70
     1
102
RTVSPropertyOp8
 70
     1
102
RTVSPropertyOp9
 70
     1
102
RTVSPropertyOp10
 70
     1
102
RTVSPropertyOp11
 70
     1
102
RTVSPropertyOp12
 70
     1
102
RTVSPropertyOp13
 70
     1
102
RTVSPropertyOp14
 70
     1
102
RTVSPropertyOp15
 70
     1
102
RTVSPropertyOp16
 70
     1
102
RTVSPropertyOp17
 70
     1
102
RTVSPropertyOp18
 70
     1
102
RTVSPropertyOp19
 70
     1
102
RTVSPropertyOp20
 70
     1
102
RTVSPropertyOp21
 70
     1
102
RTVSPropertyOp22
 70
     1
102
RTVSPropertyOp23
 70
     1
102
RTVSPropertyOp24
 70
     1
102
RTVSPropertyOp25
 70
     1
102
RTVSPropertyOp26
 70
     1
102
RTVSPropertyOp27
 70
     1
102
RTVSPropertyOp28
 70
     1
102
RTVSPropertyOp29
 70
     1
102
RTVSPropertyOp30
 70
     1
102
RTVSPropertyOp31
 70
     1
102
RTVSPropertyOp32
 70
     1
  0
XRECORD
  5
7A902
102
{ACAD_REACTORS
330
7A901
102
}
330
7A901
100
AcDbXrecord
280
     1
102
RTVSPropertyOp0
 70
     1
102
RTVSPropertyOp1
 70
     1
102
RTVSPropertyOp2
 70
     1
102
RTVSPropertyOp3
 70
     1
102
RTVSPropertyOp4
 70
     1
102
RTVSPropertyOp5
 70
     1
102
RTVSPropertyOp6
 70
     1
102
RTVSPropertyOp7
 70
     1
102
RTVSPropertyOp8
 70
     1
102
RTVSPropertyOp9
 70
     1
102
RTVSPropertyOp10
 70
     1
102
RTVSPropertyOp11
 70
     1
102
RTVSPropertyOp12
 70
     1
102
RTVSPropertyOp13
 70
     1
102
RTVSPropertyOp14
 70
     1
102
RTVSPropertyOp15
 70
     1
102
RTVSPropertyOp16
 70
     1
102
RTVSPropertyOp17
 70
     1
102
RTVSPropertyOp18
 70
     1
102
RTVSPropertyOp19
 70
     1
102
RTVSPropertyOp20
 70
     1
102
RTVSPropertyOp21
 70
     1
102
RTVSPropertyOp22
 70
     1
102
RTVSPropertyOp23
 70
     1
102
RTVSPropertyOp24
 70
     1
102
RTVSPropertyOp25
 70
     1
102
RTVSPropertyOp26
 70
     1
102
RTVSPropertyOp27
 70
     1
102
RTVSPropertyOp28
 70
     1
102
RTVSPropertyOp29
 70
     1
102
RTVSPropertyOp30
 70
     1
102
RTVSPropertyOp31
 70
     1
102
RTVSPropertyOp32
 70
     1
  0
XRECORD
  5
7A8FE
102
{ACAD_REACTORS
330
7A8FD
102
}
330
7A8FD
100
AcDbXrecord
280
     1
102
RTVSPropertyOp0
 70
     1
102
RTVSPropertyOp1
 70
     1
102
RTVSPropertyOp2
 70
     1
102
RTVSPropertyOp3
 70
     1
102
RTVSPropertyOp4
 70
     1
102
RTVSPropertyOp5
 70
     1
102
RTVSPropertyOp6
 70
     1
102
RTVSPropertyOp7
 70
     1
102
RTVSPropertyOp8
 70
     1
102
RTVSPropertyOp9
 70
     1
102
RTVSPropertyOp10
 70
     1
102
RTVSPropertyOp11
 70
     1
102
RTVSPropertyOp12
 70
     1
102
RTVSPropertyOp13
 70
     1
102
RTVSPropertyOp14
 70
     1
102
RTVSPropertyOp15
 70
     1
102
RTVSPropertyOp16
 70
     1
102
RTVSPropertyOp17
 70
     1
102
RTVSPropertyOp18
 70
     1
102
RTVSPropertyOp19
 70
     1
102
RTVSPropertyOp20
 70
     1
102
RTVSPropertyOp21
 70
     1
102
RTVSPropertyOp22
 70
     1
102
RTVSPropertyOp23
 70
     1
102
RTVSPropertyOp24
 70
     1
102
RTVSPropertyOp25
 70
     1
102
RTVSPropertyOp26
 70
     1
102
RTVSPropertyOp27
 70
     1
102
RTVSPropertyOp28
 70
     1
102
RTVSPropertyOp29
 70
     1
102
RTVSPropertyOp30
 70
     1
102
RTVSPropertyOp31
 70
     1
102
RTVSPropertyOp32
 70
     1
  0
XRECORD
  5
7A90C
102
{ACAD_REACTORS
330
7A90B
102
}
330
7A90B
100
AcDbXrecord
280
     1
102
RTVSPropertyOp0
 70
     1
102
RTVSPropertyOp1
 70
     1
102
RTVSPropertyOp2
 70
     1
102
RTVSPropertyOp3
 70
     1
102
RTVSPropertyOp4
 70
     1
102
RTVSPropertyOp5
 70
     1
102
RTVSPropertyOp6
 70
     1
102
RTVSPropertyOp7
 70
     1
102
RTVSPropertyOp8
 70
     1
102
RTVSPropertyOp9
 70
     1
102
RTVSPropertyOp10
 70
     1
102
RTVSPropertyOp11
 70
     1
102
RTVSPropertyOp12
 70
     1
102
RTVSPropertyOp13
 70
     1
102
RTVSPropertyOp14
 70
     1
102
RTVSPropertyOp15
 70
     1
102
RTVSPropertyOp16
 70
     1
102
RTVSPropertyOp17
 70
     1
102
RTVSPropertyOp18
 70
     1
102
RTVSPropertyOp19
 70
     1
102
RTVSPropertyOp20
 70
     1
102
RTVSPropertyOp21
 70
     1
102
RTVSPropertyOp22
 70
     1
102
RTVSPropertyOp23
 70
     1
102
RTVSPropertyOp24
 70
     1
102
RTVSPropertyOp25
 70
     1
102
RTVSPropertyOp26
 70
     1
102
RTVSPropertyOp27
 70
     1
102
RTVSPropertyOp28
 70
     1
102
RTVSPropertyOp29
 70
     1
102
RTVSPropertyOp30
 70
     1
102
RTVSPropertyOp31
 70
     1
102
RTVSPropertyOp32
 70
     1
  0
XRECORD
  5
7A914
102
{ACAD_REACTORS
330
7A913
102
}
330
7A913
100
AcDbXrecord
280
     1
102
RTVSPropertyOp0
 70
     1
102
RTVSPropertyOp1
 70
     1
102
RTVSPropertyOp2
 70
     1
102
RTVSPropertyOp3
 70
     1
102
RTVSPropertyOp4
 70
     1
102
RTVSPropertyOp5
 70
     1
102
RTVSPropertyOp6
 70
     1
102
RTVSPropertyOp7
 70
     1
102
RTVSPropertyOp8
 70
     1
102
RTVSPropertyOp9
 70
     1
102
RTVSPropertyOp10
 70
     1
102
RTVSPropertyOp11
 70
     1
102
RTVSPropertyOp12
 70
     1
102
RTVSPropertyOp13
 70
     1
102
RTVSPropertyOp14
 70
     1
102
RTVSPropertyOp15
 70
     1
102
RTVSPropertyOp16
 70
     1
102
RTVSPropertyOp17
 70
     1
102
RTVSPropertyOp18
 70
     1
102
RTVSPropertyOp19
 70
     1
102
RTVSPropertyOp20
 70
     1
102
RTVSPropertyOp21
 70
     1
102
RTVSPropertyOp22
 70
     1
102
RTVSPropertyOp23
 70
     1
102
RTVSPropertyOp24
 70
     1
102
RTVSPropertyOp25
 70
     1
102
RTVSPropertyOp26
 70
     1
102
RTVSPropertyOp27
 70
     1
102
RTVSPropertyOp28
 70
     1
102
RTVSPropertyOp29
 70
     1
102
RTVSPropertyOp30
 70
     1
102
RTVSPropertyOp31
 70
     1
102
RTVSPropertyOp32
 70
     1
  0
XRECORD
  5
7A906
102
{ACAD_REACTORS
330
7A905
102
}
330
7A905
100
AcDbXrecord
280
     1
102
RTVSPropertyOp0
 70
     1
102
RTVSPropertyOp1
 70
     1
102
RTVSPropertyOp2
 70
     1
102
RTVSPropertyOp3
 70
     1
102
RTVSPropertyOp4
 70
     1
102
RTVSPropertyOp5
 70
     1
102
RTVSPropertyOp6
 70
     1
102
RTVSPropertyOp7
 70
     1
102
RTVSPropertyOp8
 70
     1
102
RTVSPropertyOp9
 70
     1
102
RTVSPropertyOp10
 70
     1
102
RTVSPropertyOp11
 70
     1
102
RTVSPropertyOp12
 70
     1
102
RTVSPropertyOp13
 70
     1
102
RTVSPropertyOp14
 70
     1
102
RTVSPropertyOp15
 70
     1
102
RTVSPropertyOp16
 70
     1
102
RTVSPropertyOp17
 70
     1
102
RTVSPropertyOp18
 70
     1
102
RTVSPropertyOp19
 70
     1
102
RTVSPropertyOp20
 70
     1
102
RTVSPropertyOp21
 70
     1
102
RTVSPropertyOp22
 70
     1
102
RTVSPropertyOp23
 70
     1
102
RTVSPropertyOp24
 70
     1
102
RTVSPropertyOp25
 70
     1
102
RTVSPropertyOp26
 70
     1
102
RTVSPropertyOp27
 70
     1
102
RTVSPropertyOp28
 70
     1
102
RTVSPropertyOp29
 70
     1
102
RTVSPropertyOp30
 70
     1
102
RTVSPropertyOp31
 70
     1
102
RTVSPropertyOp32
 70
     1
  0
XRECORD
  5
7A90A
102
{ACAD_REACTORS
330
7A909
102
}
330
7A909
100
AcDbXrecord
280
     1
102
RTVSPropertyOp0
 70
     1
102
RTVSPropertyOp1
 70
     1
102
RTVSPropertyOp2
 70
     1
102
RTVSPropertyOp3
 70
     1
102
RTVSPropertyOp4
 70
     1
102
RTVSPropertyOp5
 70
     1
102
RTVSPropertyOp6
 70
     1
102
RTVSPropertyOp7
 70
     1
102
RTVSPropertyOp8
 70
     1
102
RTVSPropertyOp9
 70
     1
102
RTVSPropertyOp10
 70
     1
102
RTVSPropertyOp11
 70
     1
102
RTVSPropertyOp12
 70
     1
102
RTVSPropertyOp13
 70
     1
102
RTVSPropertyOp14
 70
     1
102
RTVSPropertyOp15
 70
     1
102
RTVSPropertyOp16
 70
     1
102
RTVSPropertyOp17
 70
     1
102
RTVSPropertyOp18
 70
     1
102
RTVSPropertyOp19
 70
     1
102
RTVSPropertyOp20
 70
     1
102
RTVSPropertyOp21
 70
     1
102
RTVSPropertyOp22
 70
     1
102
RTVSPropertyOp23
 70
     1
102
RTVSPropertyOp24
 70
     1
102
RTVSPropertyOp25
 70
     1
102
RTVSPropertyOp26
 70
     1
102
RTVSPropertyOp27
 70
     1
102
RTVSPropertyOp28
 70
     1
102
RTVSPropertyOp29
 70
     1
102
RTVSPropertyOp30
 70
     1
102
RTVSPropertyOp31
 70
     1
102
RTVSPropertyOp32
 70
     1
  0
XRECORD
  5
7A928
102
{ACAD_REACTORS
330
7A927
102
}
330
7A927
100
AcDbXrecord
280
     1
102
RTVSPropertyOp0
 70
     0
102
RTVSPropertyOp1
 70
     0
102
RTVSPropertyOp2
 70
     0
102
RTVSPropertyOp3
 70
     0
102
RTVSPropertyOp4
 70
     0
102
RTVSPropertyOp5
 70
     0
102
RTVSPropertyOp6
 70
     0
102
RTVSPropertyOp7
 70
     0
102
RTVSPropertyOp8
 70
     0
102
RTVSPropertyOp9
 70
     0
102
RTVSPropertyOp10
 70
     0
102
RTVSPropertyOp11
 70
     0
102
RTVSPropertyOp12
 70
     0
102
RTVSPropertyOp13
 70
     0
102
RTVSPropertyOp14
 70
     2
102
RTVSPropertyOp15
 70
     0
102
RTVSPropertyOp16
 70
     0
102
RTVSPropertyOp17
 70
     0
102
RTVSPropertyOp18
 70
     0
102
RTVSPropertyOp19
 70
     0
102
RTVSPropertyOp20
 70
     0
102
RTVSPropertyOp21
 70
     0
102
RTVSPropertyOp22
 70
     0
102
RTVSPropertyOp23
 70
     0
102
RTVSPropertyOp24
 70
     0
102
RTVSPropertyOp25
 70
     0
102
RTVSPropertyOp26
 70
     0
102
RTVSPropertyOp27
 70
     0
102
RTVSPropertyOp28
 70
     0
102
RTVSPropertyOp29
 70
     0
102
RTVSPropertyOp30
 70
     0
102
RTVSPropertyOp31
 70
     0
102
RTVSPropertyOp32
 70
     0
  0
XRECORD
  5
7A912
102
{ACAD_REACTORS
330
7A911
102
}
330
7A911
100
AcDbXrecord
280
     1
102
RTVSPropertyOp0
 70
     1
102
RTVSPropertyOp1
 70
     1
102
RTVSPropertyOp2
 70
     1
102
RTVSPropertyOp3
 70
     1
102
RTVSPropertyOp4
 70
     1
102
RTVSPropertyOp5
 70
     1
102
RTVSPropertyOp6
 70
     1
102
RTVSPropertyOp7
 70
     1
102
RTVSPropertyOp8
 70
     1
102
RTVSPropertyOp9
 70
     1
102
RTVSPropertyOp10
 70
     1
102
RTVSPropertyOp11
 70
     1
102
RTVSPropertyOp12
 70
     1
102
RTVSPropertyOp13
 70
     1
102
RTVSPropertyOp14
 70
     1
102
RTVSPropertyOp15
 70
     1
102
RTVSPropertyOp16
 70
     1
102
RTVSPropertyOp17
 70
     1
102
RTVSPropertyOp18
 70
     1
102
RTVSPropertyOp19
 70
     1
102
RTVSPropertyOp20
 70
     1
102
RTVSPropertyOp21
 70
     1
102
RTVSPropertyOp22
 70
     1
102
RTVSPropertyOp23
 70
     1
102
RTVSPropertyOp24
 70
     1
102
RTVSPropertyOp25
 70
     1
102
RTVSPropertyOp26
 70
     1
102
RTVSPropertyOp27
 70
     1
102
RTVSPropertyOp28
 70
     1
102
RTVSPropertyOp29
 70
     1
102
RTVSPropertyOp30
 70
     1
102
RTVSPropertyOp31
 70
     1
102
RTVSPropertyOp32
 70
     1
  0
XRECORD
  5
7A8F6
102
{ACAD_REACTORS
330
7A8F5
102
}
330
7A8F5
100
AcDbXrecord
280
     1
102
RTVSPropertyOp0
 70
     1
102
RTVSPropertyOp1
 70
     1
102
RTVSPropertyOp2
 70
     1
102
RTVSPropertyOp3
 70
     1
102
RTVSPropertyOp4
 70
     1
102
RTVSPropertyOp5
 70
     1
102
RTVSPropertyOp6
 70
     1
102
RTVSPropertyOp7
 70
     1
102
RTVSPropertyOp8
 70
     1
102
RTVSPropertyOp9
 70
     1
102
RTVSPropertyOp10
 70
     1
102
RTVSPropertyOp11
 70
     1
102
RTVSPropertyOp12
 70
     1
102
RTVSPropertyOp13
 70
     1
102
RTVSPropertyOp14
 70
     1
102
RTVSPropertyOp15
 70
     1
102
RTVSPropertyOp16
 70
     1
102
RTVSPropertyOp17
 70
     1
102
RTVSPropertyOp18
 70
     1
102
RTVSPropertyOp19
 70
     1
102
RTVSPropertyOp20
 70
     1
102
RTVSPropertyOp21
 70
     1
102
RTVSPropertyOp22
 70
     1
102
RTVSPropertyOp23
 70
     1
102
RTVSPropertyOp24
 70
     1
102
RTVSPropertyOp25
 70
     1
102
RTVSPropertyOp26
 70
     1
102
RTVSPropertyOp27
 70
     1
102
RTVSPropertyOp28
 70
     1
102
RTVSPropertyOp29
 70
     1
102
RTVSPropertyOp30
 70
     1
102
RTVSPropertyOp31
 70
     1
102
RTVSPropertyOp32
 70
     1
  0
XRECORD
  5
7A8F8
102
{ACAD_REACTORS
330
7A8F7
102
}
330
7A8F7
100
AcDbXrecord
280
     1
102
RTVSPropertyOp0
 70
     1
102
RTVSPropertyOp1
 70
     1
102
RTVSPropertyOp2
 70
     1
102
RTVSPropertyOp3
 70
     1
102
RTVSPropertyOp4
 70
     1
102
RTVSPropertyOp5
 70
     1
102
RTVSPropertyOp6
 70
     1
102
RTVSPropertyOp7
 70
     1
102
RTVSPropertyOp8
 70
     1
102
RTVSPropertyOp9
 70
     1
102
RTVSPropertyOp10
 70
     1
102
RTVSPropertyOp11
 70
     1
102
RTVSPropertyOp12
 70
     1
102
RTVSPropertyOp13
 70
     1
102
RTVSPropertyOp14
 70
     1
102
RTVSPropertyOp15
 70
     1
102
RTVSPropertyOp16
 70
     1
102
RTVSPropertyOp17
 70
     1
102
RTVSPropertyOp18
 70
     1
102
RTVSPropertyOp19
 70
     1
102
RTVSPropertyOp20
 70
     1
102
RTVSPropertyOp21
 70
     1
102
RTVSPropertyOp22
 70
     1
102
RTVSPropertyOp23
 70
     1
102
RTVSPropertyOp24
 70
     1
102
RTVSPropertyOp25
 70
     1
102
RTVSPropertyOp26
 70
     1
102
RTVSPropertyOp27
 70
     1
102
RTVSPropertyOp28
 70
     1
102
RTVSPropertyOp29
 70
     1
102
RTVSPropertyOp30
 70
     1
102
RTVSPropertyOp31
 70
     1
102
RTVSPropertyOp32
 70
     1
  0
XRECORD
  5
7A8FA
102
{ACAD_REACTORS
330
7A8F9
102
}
330
7A8F9
100
AcDbXrecord
280
     1
102
RTVSPropertyOp0
 70
     1
102
RTVSPropertyOp1
 70
     1
102
RTVSPropertyOp2
 70
     1
102
RTVSPropertyOp3
 70
     1
102
RTVSPropertyOp4
 70
     1
102
RTVSPropertyOp5
 70
     1
102
RTVSPropertyOp6
 70
     1
102
RTVSPropertyOp7
 70
     1
102
RTVSPropertyOp8
 70
     1
102
RTVSPropertyOp9
 70
     1
102
RTVSPropertyOp10
 70
     1
102
RTVSPropertyOp11
 70
     1
102
RTVSPropertyOp12
 70
     1
102
RTVSPropertyOp13
 70
     1
102
RTVSPropertyOp14
 70
     1
102
RTVSPropertyOp15
 70
     1
102
RTVSPropertyOp16
 70
     1
102
RTVSPropertyOp17
 70
     1
102
RTVSPropertyOp18
 70
     1
102
RTVSPropertyOp19
 70
     1
102
RTVSPropertyOp20
 70
     1
102
RTVSPropertyOp21
 70
     1
102
RTVSPropertyOp22
 70
     1
102
RTVSPropertyOp23
 70
     1
102
RTVSPropertyOp24
 70
     1
102
RTVSPropertyOp25
 70
     1
102
RTVSPropertyOp26
 70
     1
102
RTVSPropertyOp27
 70
     1
102
RTVSPropertyOp28
 70
     1
102
RTVSPropertyOp29
 70
     1
102
RTVSPropertyOp30
 70
     1
102
RTVSPropertyOp31
 70
     1
102
RTVSPropertyOp32
 70
     1
  0
XRECORD
  5
7A8FC
102
{ACAD_REACTORS
330
7A8FB
102
}
330
7A8FB
100
AcDbXrecord
280
     1
102
RTVSPropertyOp0
 70
     1
102
RTVSPropertyOp1
 70
     1
102
RTVSPropertyOp2
 70
     1
102
RTVSPropertyOp3
 70
     1
102
RTVSPropertyOp4
 70
     1
102
RTVSPropertyOp5
 70
     1
102
RTVSPropertyOp6
 70
     1
102
RTVSPropertyOp7
 70
     1
102
RTVSPropertyOp8
 70
     1
102
RTVSPropertyOp9
 70
     1
102
RTVSPropertyOp10
 70
     1
102
RTVSPropertyOp11
 70
     1
102
RTVSPropertyOp12
 70
     1
102
RTVSPropertyOp13
 70
     1
102
RTVSPropertyOp14
 70
     1
102
RTVSPropertyOp15
 70
     1
102
RTVSPropertyOp16
 70
     1
102
RTVSPropertyOp17
 70
     1
102
RTVSPropertyOp18
 70
     1
102
RTVSPropertyOp19
 70
     1
102
RTVSPropertyOp20
 70
     1
102
RTVSPropertyOp21
 70
     1
102
RTVSPropertyOp22
 70
     1
102
RTVSPropertyOp23
 70
     1
102
RTVSPropertyOp24
 70
     1
102
RTVSPropertyOp25
 70
     1
102
RTVSPropertyOp26
 70
     1
102
RTVSPropertyOp27
 70
     1
102
RTVSPropertyOp28
 70
     1
102
RTVSPropertyOp29
 70
     1
102
RTVSPropertyOp30
 70
     1
102
RTVSPropertyOp31
 70
     1
102
RTVSPropertyOp32
 70
     1
  0
XRECORD
  5
7A918
102
{ACAD_REACTORS
330
7A917
102
}
330
7A917
100
AcDbXrecord
280
     1
102
RTVSPropertyOp0
 70
     1
102
RTVSPropertyOp1
 70
     1
102
RTVSPropertyOp2
 70
     1
102
RTVSPropertyOp3
 70
     1
102
RTVSPropertyOp4
 70
     1
102
RTVSPropertyOp5
 70
     1
102
RTVSPropertyOp6
 70
     1
102
RTVSPropertyOp7
 70
     1
102
RTVSPropertyOp8
 70
     1
102
RTVSPropertyOp9
 70
     1
102
RTVSPropertyOp10
 70
     1
102
RTVSPropertyOp11
 70
     1
102
RTVSPropertyOp12
 70
     1
102
RTVSPropertyOp13
 70
     1
102
RTVSPropertyOp14
 70
     1
102
RTVSPropertyOp15
 70
     1
102
RTVSPropertyOp16
 70
     1
102
RTVSPropertyOp17
 70
     1
102
RTVSPropertyOp18
 70
     1
102
RTVSPropertyOp19
 70
     1
102
RTVSPropertyOp20
 70
     1
102
RTVSPropertyOp21
 70
     1
102
RTVSPropertyOp22
 70
     1
102
RTVSPropertyOp23
 70
     1
102
RTVSPropertyOp24
 70
     1
102
RTVSPropertyOp25
 70
     1
102
RTVSPropertyOp26
 70
     1
102
RTVSPropertyOp27
 70
     1
102
RTVSPropertyOp28
 70
     1
102
RTVSPropertyOp29
 70
     1
102
RTVSPropertyOp30
 70
     1
102
RTVSPropertyOp31
 70
     1
102
RTVSPropertyOp32
 70
     1
  0
XRECORD
  5
7A924
102
{ACAD_REACTORS
330
7A923
102
}
330
7A923
100
AcDbXrecord
280
     1
102
RTVSPropertyOp0
 70
     0
102
RTVSPropertyOp1
 70
     0
102
RTVSPropertyOp2
 70
     0
102
RTVSPropertyOp3
 70
     0
102
RTVSPropertyOp4
 70
     0
102
RTVSPropertyOp5
 70
     0
102
RTVSPropertyOp6
 70
     0
102
RTVSPropertyOp7
 70
     0
102
RTVSPropertyOp8
 70
     0
102
RTVSPropertyOp9
 70
     0
102
RTVSPropertyOp10
 70
     0
102
RTVSPropertyOp11
 70
     0
102
RTVSPropertyOp12
 70
     0
102
RTVSPropertyOp13
 70
     0
102
RTVSPropertyOp14
 70
     2
102
RTVSPropertyOp15
 70
     0
102
RTVSPropertyOp16
 70
     0
102
RTVSPropertyOp17
 70
     0
102
RTVSPropertyOp18
 70
     0
102
RTVSPropertyOp19
 70
     0
102
RTVSPropertyOp20
 70
     0
102
RTVSPropertyOp21
 70
     0
102
RTVSPropertyOp22
 70
     0
102
RTVSPropertyOp23
 70
     0
102
RTVSPropertyOp24
 70
     0
102
RTVSPropertyOp25
 70
     0
102
RTVSPropertyOp26
 70
     0
102
RTVSPropertyOp27
 70
     0
102
RTVSPropertyOp28
 70
     0
102
RTVSPropertyOp29
 70
     0
102
RTVSPropertyOp30
 70
     0
102
RTVSPropertyOp31
 70
     0
102
RTVSPropertyOp32
 70
     0
  0
XRECORD
  5
7A910
102
{ACAD_REACTORS
330
7A90F
102
}
330
7A90F
100
AcDbXrecord
280
     1
102
RTVSPropertyOp0
 70
     1
102
RTVSPropertyOp1
 70
     1
102
RTVSPropertyOp2
 70
     1
102
RTVSPropertyOp3
 70
     1
102
RTVSPropertyOp4
 70
     1
102
RTVSPropertyOp5
 70
     1
102
RTVSPropertyOp6
 70
     1
102
RTVSPropertyOp7
 70
     1
102
RTVSPropertyOp8
 70
     1
102
RTVSPropertyOp9
 70
     1
102
RTVSPropertyOp10
 70
     1
102
RTVSPropertyOp11
 70
     1
102
RTVSPropertyOp12
 70
     1
102
RTVSPropertyOp13
 70
     1
102
RTVSPropertyOp14
 70
     1
102
RTVSPropertyOp15
 70
     1
102
RTVSPropertyOp16
 70
     1
102
RTVSPropertyOp17
 70
     1
102
RTVSPropertyOp18
 70
     1
102
RTVSPropertyOp19
 70
     1
102
RTVSPropertyOp20
 70
     1
102
RTVSPropertyOp21
 70
     1
102
RTVSPropertyOp22
 70
     1
102
RTVSPropertyOp23
 70
     1
102
RTVSPropertyOp24
 70
     1
102
RTVSPropertyOp25
 70
     1
102
RTVSPropertyOp26
 70
     1
102
RTVSPropertyOp27
 70
     1
102
RTVSPropertyOp28
 70
     1
102
RTVSPropertyOp29
 70
     1
102
RTVSPropertyOp30
 70
     1
102
RTVSPropertyOp31
 70
     1
102
RTVSPropertyOp32
 70
     1
  0
XRECORD
  5
7A926
102
{ACAD_REACTORS
330
7A925
102
}
330
7A925
100
AcDbXrecord
280
     1
102
RTVSPropertyOp0
 70
     0
102
RTVSPropertyOp1
 70
     0
102
RTVSPropertyOp2
 70
     0
102
RTVSPropertyOp3
 70
     0
102
RTVSPropertyOp4
 70
     0
102
RTVSPropertyOp5
 70
     0
102
RTVSPropertyOp6
 70
     0
102
RTVSPropertyOp7
 70
     0
102
RTVSPropertyOp8
 70
     0
102
RTVSPropertyOp9
 70
     0
102
RTVSPropertyOp10
 70
     0
102
RTVSPropertyOp11
 70
     0
102
RTVSPropertyOp12
 70
     0
102
RTVSPropertyOp13
 70
     0
102
RTVSPropertyOp14
 70
     2
102
RTVSPropertyOp15
 70
     0
102
RTVSPropertyOp16
 70
     0
102
RTVSPropertyOp17
 70
     0
102
RTVSPropertyOp18
 70
     0
102
RTVSPropertyOp19
 70
     0
102
RTVSPropertyOp20
 70
     0
102
RTVSPropertyOp21
 70
     0
102
RTVSPropertyOp22
 70
     0
102
RTVSPropertyOp23
 70
     0
102
RTVSPropertyOp24
 70
     0
102
RTVSPropertyOp25
 70
     0
102
RTVSPropertyOp26
 70
     0
102
RTVSPropertyOp27
 70
     0
102
RTVSPropertyOp28
 70
     0
102
RTVSPropertyOp29
 70
     0
102
RTVSPropertyOp30
 70
     0
102
RTVSPropertyOp31
 70
     0
102
RTVSPropertyOp32
 70
     0
  0
XRECORD
  5
7A908
102
{ACAD_REACTORS
330
7A907
102
}
330
7A907
100
AcDbXrecord
280
     1
102
RTVSPropertyOp0
 70
     1
102
RTVSPropertyOp1
 70
     1
102
RTVSPropertyOp2
 70
     1
102
RTVSPropertyOp3
 70
     1
102
RTVSPropertyOp4
 70
     1
102
RTVSPropertyOp5
 70
     1
102
RTVSPropertyOp6
 70
     1
102
RTVSPropertyOp7
 70
     1
102
RTVSPropertyOp8
 70
     1
102
RTVSPropertyOp9
 70
     1
102
RTVSPropertyOp10
 70
     1
102
RTVSPropertyOp11
 70
     1
102
RTVSPropertyOp12
 70
     1
102
RTVSPropertyOp13
 70
     1
102
RTVSPropertyOp14
 70
     1
102
RTVSPropertyOp15
 70
     1
102
RTVSPropertyOp16
 70
     1
102
RTVSPropertyOp17
 70
     1
102
RTVSPropertyOp18
 70
     1
102
RTVSPropertyOp19
 70
     1
102
RTVSPropertyOp20
 70
     1
102
RTVSPropertyOp21
 70
     1
102
RTVSPropertyOp22
 70
     1
102
RTVSPropertyOp23
 70
     1
102
RTVSPropertyOp24
 70
     1
102
RTVSPropertyOp25
 70
     1
102
RTVSPropertyOp26
 70
     1
102
RTVSPropertyOp27
 70
     1
102
RTVSPropertyOp28
 70
     1
102
RTVSPropertyOp29
 70
     1
102
RTVSPropertyOp30
 70
     1
102
RTVSPropertyOp31
 70
     1
102
RTVSPropertyOp32
 70
     1
  0
XRECORD
  5
7A922
102
{ACAD_REACTORS
330
7A921
102
}
330
7A921
100
AcDbXrecord
280
     1
102
RTVSPropertyOp0
 70
     1
102
RTVSPropertyOp1
 70
     1
102
RTVSPropertyOp2
 70
     1
102
RTVSPropertyOp3
 70
     1
102
RTVSPropertyOp4
 70
     1
102
RTVSPropertyOp5
 70
     1
102
RTVSPropertyOp6
 70
     1
102
RTVSPropertyOp7
 70
     1
102
RTVSPropertyOp8
 70
     1
102
RTVSPropertyOp9
 70
     1
102
RTVSPropertyOp10
 70
     1
102
RTVSPropertyOp11
 70
     1
102
RTVSPropertyOp12
 70
     1
102
RTVSPropertyOp13
 70
     1
102
RTVSPropertyOp14
 70
     1
102
RTVSPropertyOp15
 70
     1
102
RTVSPropertyOp16
 70
     1
102
RTVSPropertyOp17
 70
     1
102
RTVSPropertyOp18
 70
     1
102
RTVSPropertyOp19
 70
     1
102
RTVSPropertyOp20
 70
     1
102
RTVSPropertyOp21
 70
     1
102
RTVSPropertyOp22
 70
     1
102
RTVSPropertyOp23
 70
     1
102
RTVSPropertyOp24
 70
     1
102
RTVSPropertyOp25
 70
     1
102
RTVSPropertyOp26
 70
     1
102
RTVSPropertyOp27
 70
     1
102
RTVSPropertyOp28
 70
     1
102
RTVSPropertyOp29
 70
     1
102
RTVSPropertyOp30
 70
     1
102
RTVSPropertyOp31
 70
     1
102
RTVSPropertyOp32
 70
     1
  0
XRECORD
  5
7A920
102
{ACAD_REACTORS
330
7A91F
102
}
330
7A91F
100
AcDbXrecord
280
     1
102
RTVSPropertyOp0
 70
     1
102
RTVSPropertyOp1
 70
     1
102
RTVSPropertyOp2
 70
     1
102
RTVSPropertyOp3
 70
     1
102
RTVSPropertyOp4
 70
     1
102
RTVSPropertyOp5
 70
     1
102
RTVSPropertyOp6
 70
     1
102
RTVSPropertyOp7
 70
     1
102
RTVSPropertyOp8
 70
     1
102
RTVSPropertyOp9
 70
     1
102
RTVSPropertyOp10
 70
     1
102
RTVSPropertyOp11
 70
     1
102
RTVSPropertyOp12
 70
     1
102
RTVSPropertyOp13
 70
     1
102
RTVSPropertyOp14
 70
     1
102
RTVSPropertyOp15
 70
     1
102
RTVSPropertyOp16
 70
     1
102
RTVSPropertyOp17
 70
     1
102
RTVSPropertyOp18
 70
     1
102
RTVSPropertyOp19
 70
     1
102
RTVSPropertyOp20
 70
     1
102
RTVSPropertyOp21
 70
     1
102
RTVSPropertyOp22
 70
     1
102
RTVSPropertyOp23
 70
     1
102
RTVSPropertyOp24
 70
     1
102
RTVSPropertyOp25
 70
     1
102
RTVSPropertyOp26
 70
     1
102
RTVSPropertyOp27
 70
     1
102
RTVSPropertyOp28
 70
     1
102
RTVSPropertyOp29
 70
     1
102
RTVSPropertyOp30
 70
     1
102
RTVSPropertyOp31
 70
     1
102
RTVSPropertyOp32
 70
     1
  0
XRECORD
  5
7A91A
102
{ACAD_REACTORS
330
7A919
102
}
330
7A919
100
AcDbXrecord
280
     1
102
RTVSPropertyOp0
 70
     1
102
RTVSPropertyOp1
 70
     1
102
RTVSPropertyOp2
 70
     1
102
RTVSPropertyOp3
 70
     1
102
RTVSPropertyOp4
 70
     1
102
RTVSPropertyOp5
 70
     1
102
RTVSPropertyOp6
 70
     1
102
RTVSPropertyOp7
 70
     1
102
RTVSPropertyOp8
 70
     1
102
RTVSPropertyOp9
 70
     1
102
RTVSPropertyOp10
 70
     1
102
RTVSPropertyOp11
 70
     1
102
RTVSPropertyOp12
 70
     1
102
RTVSPropertyOp13
 70
     1
102
RTVSPropertyOp14
 70
     1
102
RTVSPropertyOp15
 70
     1
102
RTVSPropertyOp16
 70
     1
102
RTVSPropertyOp17
 70
     1
102
RTVSPropertyOp18
 70
     1
102
RTVSPropertyOp19
 70
     1
102
RTVSPropertyOp20
 70
     1
102
RTVSPropertyOp21
 70
     1
102
RTVSPropertyOp22
 70
     1
102
RTVSPropertyOp23
 70
     1
102
RTVSPropertyOp24
 70
     1
102
RTVSPropertyOp25
 70
     1
102
RTVSPropertyOp26
 70
     1
102
RTVSPropertyOp27
 70
     1
102
RTVSPropertyOp28
 70
     1
102
RTVSPropertyOp29
 70
     1
102
RTVSPropertyOp30
 70
     1
102
RTVSPropertyOp31
 70
     1
102
RTVSPropertyOp32
 70
     1
  0
XRECORD
  5
7A91C
102
{ACAD_REACTORS
330
7A91B
102
}
330
7A91B
100
AcDbXrecord
280
     1
102
RTVSPropertyOp0
 70
     1
102
RTVSPropertyOp1
 70
     1
102
RTVSPropertyOp2
 70
     1
102
RTVSPropertyOp3
 70
     1
102
RTVSPropertyOp4
 70
     1
102
RTVSPropertyOp5
 70
     1
102
RTVSPropertyOp6
 70
     1
102
RTVSPropertyOp7
 70
     1
102
RTVSPropertyOp8
 70
     1
102
RTVSPropertyOp9
 70
     1
102
RTVSPropertyOp10
 70
     1
102
RTVSPropertyOp11
 70
     1
102
RTVSPropertyOp12
 70
     1
102
RTVSPropertyOp13
 70
     1
102
RTVSPropertyOp14
 70
     1
102
RTVSPropertyOp15
 70
     1
102
RTVSPropertyOp16
 70
     1
102
RTVSPropertyOp17
 70
     1
102
RTVSPropertyOp18
 70
     1
102
RTVSPropertyOp19
 70
     1
102
RTVSPropertyOp20
 70
     1
102
RTVSPropertyOp21
 70
     1
102
RTVSPropertyOp22
 70
     1
102
RTVSPropertyOp23
 70
     1
102
RTVSPropertyOp24
 70
     1
102
RTVSPropertyOp25
 70
     1
102
RTVSPropertyOp26
 70
     1
102
RTVSPropertyOp27
 70
     1
102
RTVSPropertyOp28
 70
     1
102
RTVSPropertyOp29
 70
     1
102
RTVSPropertyOp30
 70
     1
102
RTVSPropertyOp31
 70
     1
102
RTVSPropertyOp32
 70
     1
  0
XRECORD
  5
7A90E
102
{ACAD_REACTORS
330
7A90D
102
}
330
7A90D
100
AcDbXrecord
280
     1
102
RTVSPropertyOp0
 70
     1
102
RTVSPropertyOp1
 70
     1
102
RTVSPropertyOp2
 70
     1
102
RTVSPropertyOp3
 70
     1
102
RTVSPropertyOp4
 70
     1
102
RTVSPropertyOp5
 70
     1
102
RTVSPropertyOp6
 70
     1
102
RTVSPropertyOp7
 70
     1
102
RTVSPropertyOp8
 70
     1
102
RTVSPropertyOp9
 70
     1
102
RTVSPropertyOp10
 70
     1
102
RTVSPropertyOp11
 70
     1
102
RTVSPropertyOp12
 70
     1
102
RTVSPropertyOp13
 70
     1
102
RTVSPropertyOp14
 70
     1
102
RTVSPropertyOp15
 70
     1
102
RTVSPropertyOp16
 70
     1
102
RTVSPropertyOp17
 70
     1
102
RTVSPropertyOp18
 70
     1
102
RTVSPropertyOp19
 70
     1
102
RTVSPropertyOp20
 70
     1
102
RTVSPropertyOp21
 70
     1
102
RTVSPropertyOp22
 70
     1
102
RTVSPropertyOp23
 70
     1
102
RTVSPropertyOp24
 70
     1
102
RTVSPropertyOp25
 70
     1
102
RTVSPropertyOp26
 70
     1
102
RTVSPropertyOp27
 70
     1
102
RTVSPropertyOp28
 70
     1
102
RTVSPropertyOp29
 70
     1
102
RTVSPropertyOp30
 70
     1
102
RTVSPropertyOp31
 70
     1
102
RTVSPropertyOp32
 70
     1
  0
XRECORD
  5
7A916
102
{ACAD_REACTORS
330
7A915
102
}
330
7A915
100
AcDbXrecord
280
     1
102
RTVSPropertyOp0
 70
     1
102
RTVSPropertyOp1
 70
     1
102
RTVSPropertyOp2
 70
     1
102
RTVSPropertyOp3
 70
     1
102
RTVSPropertyOp4
 70
     1
102
RTVSPropertyOp5
 70
     1
102
RTVSPropertyOp6
 70
     1
102
RTVSPropertyOp7
 70
     1
102
RTVSPropertyOp8
 70
     1
102
RTVSPropertyOp9
 70
     1
102
RTVSPropertyOp10
 70
     1
102
RTVSPropertyOp11
 70
     1
102
RTVSPropertyOp12
 70
     1
102
RTVSPropertyOp13
 70
     1
102
RTVSPropertyOp14
 70
     1
102
RTVSPropertyOp15
 70
     1
102
RTVSPropertyOp16
 70
     1
102
RTVSPropertyOp17
 70
     1
102
RTVSPropertyOp18
 70
     1
102
RTVSPropertyOp19
 70
     1
102
RTVSPropertyOp20
 70
     1
102
RTVSPropertyOp21
 70
     1
102
RTVSPropertyOp22
 70
     1
102
RTVSPropertyOp23
 70
     1
102
RTVSPropertyOp24
 70
     1
102
RTVSPropertyOp25
 70
     1
102
RTVSPropertyOp26
 70
     1
102
RTVSPropertyOp27
 70
     1
102
RTVSPropertyOp28
 70
     1
102
RTVSPropertyOp29
 70
     1
102
RTVSPropertyOp30
 70
     1
102
RTVSPropertyOp31
 70
     1
102
RTVSPropertyOp32
 70
     1
  0
XRECORD
  5
7A91E
102
{ACAD_REACTORS
330
7A91D
102
}
330
7A91D
100
AcDbXrecord
280
     1
102
RTVSPropertyOp0
 70
     1
102
RTVSPropertyOp1
 70
     1
102
RTVSPropertyOp2
 70
     1
102
RTVSPropertyOp3
 70
     1
102
RTVSPropertyOp4
 70
     1
102
RTVSPropertyOp5
 70
     1
102
RTVSPropertyOp6
 70
     1
102
RTVSPropertyOp7
 70
     1
102
RTVSPropertyOp8
 70
     1
102
RTVSPropertyOp9
 70
     1
102
RTVSPropertyOp10
 70
     1
102
RTVSPropertyOp11
 70
     1
102
RTVSPropertyOp12
 70
     1
102
RTVSPropertyOp13
 70
     1
102
RTVSPropertyOp14
 70
     1
102
RTVSPropertyOp15
 70
     1
102
RTVSPropertyOp16
 70
     1
102
RTVSPropertyOp17
 70
     1
102
RTVSPropertyOp18
 70
     1
102
RTVSPropertyOp19
 70
     1
102
RTVSPropertyOp20
 70
     1
102
RTVSPropertyOp21
 70
     1
102
RTVSPropertyOp22
 70
     1
102
RTVSPropertyOp23
 70
     1
102
RTVSPropertyOp24
 70
     1
102
RTVSPropertyOp25
 70
     1
102
RTVSPropertyOp26
 70
     1
102
RTVSPropertyOp27
 70
     1
102
RTVSPropertyOp28
 70
     1
102
RTVSPropertyOp29
 70
     1
102
RTVSPropertyOp30
 70
     1
102
RTVSPropertyOp31
 70
     1
102
RTVSPropertyOp32
 70
     1
  0
ENDSEC
  0
EOF
