  0
SECTION
  2
HEADER
  9
$ACADVER
  1
AC1009
  9
$INSBASE
 10
0
 20
0
 30
0
  9
$EXTMIN
 10
0
 20
0
  9
$EXTMAX
 10
29700
 20
21000
  9
$LIMMIN
 10
0
 20
0
  9
$LIMMAX
 10
29700
 20
21000
  9
$LTSCALE
 40
100
  0
ENDSEC
  0
SECTION
  2
TABLES
  0
TABLE
  2
LTYPE
 70
     9
  0
LTYPE
  2
CONTINUOUS
 70
    64
  3
実線
 72
    65
 73
     0
 40
0.0
  0
LTYPE
  2
DASHED1
 70
    64
  3
--  --  --  --  --  --  --  --  
 72
    65
 73
     2
 40
2.5
 49
1.25
 49
-1.25
  0
LTYPE
  2
DASHED2
 70
    64
  3
----    ----    ----    ----    
 72
    65
 73
     2
 40
5.0
 49
2.5
 49
-2.5
  0
LTYPE
  2
DASHED3
 70
    64
  3
------  ------  ------  ------  
 72
    65
 73
     2
 40
5.0
 49
3.75
 49
-1.25
  0
LTYPE
  2
CENTER1
 70
    64
  3
----- - ----- - ----- - ----- - 
 72
    65
 73
     4
 40
10.0
 49
6.25
 49
-1.25
 49
1.25
 49
-1.25
  0
LTYPE
  2
CENTER2
 70
    64
  3
----------  --  ----------  --  
 72
    65
 73
     4
 40
20.0
 49
12.5
 49
-2.5
 49
2.5
 49
-2.5
  0
LTYPE
  2
PHANTOM1
 70
    64
  3
--- - - --- - - --- - - --- - - 
 72
    65
 73
     6
 40
10.0
 49
3.25
 49
-1.25
 49
1.25
 49
-1.25
 49
1.25
 49
-1.25
  0
LTYPE
  2
PHANTOM2
 70
    64
  3
--------  -  -  --------  -  -  
 72
    65
 73
     6
 40
20.0
 49
10.0
 49
-2.5
 49
1.25
 49
-2.5
 49
1.25
 49
-2.5
  0
LTYPE
  2
DOT
 70
    64
  3
-   -   -   -   -   -   -   -   
 72
    65
 73
     2
 40
2.5
 49
0.625
 49
-1.875
  0
LTYPE
  2
DUMMY
 70
    64
  3
ダミー
 72
    65
 73
     0
 40
0.0
  0
LTYPE
  2
RAND1
 70
    64
  3
ランダム線1
 72
    65
 73
     4
 40
10.0
 49
1.0
 49
-2.0
 49
3.0
 49
-4.0
  0
LTYPE
  2
RAND2
 70
    64
  3
ランダム線2
 72
    65
 73
     4
 40
14.0
 49
2.0
 49
-3.0
 49
4.0
 49
-5.0
  0
LTYPE
  2
RAND3
 70
    64
  3
ランダム線3
 72
    65
 73
     4
 40
18.0
 49
3.0
 49
-4.0
 49
5.0
 49
-6.0
  0
LTYPE
  2
RAND4
 70
    64
  3
ランダム線4
 72
    65
 73
     4
 40
22.0
 49
4.0
 49
-5.0
 49
6.0
 49
-7.0
  0
LTYPE
  2
RAND5
 70
    64
  3
ランダム線5
 72
    65
 73
     4
 40
26.0
 49
5.0
 49
-6.0
 49
7.0
 49
-8.0
  0
LTYPE
  2
LONG1
 70
    64
  3
----------  --  ----------  --  
 72
    65
 73
     4
 40
40.0
 49
32.5
 49
-2.5
 49
2.5
 49
-2.5
  0
LTYPE
  2
LONG2
 70
    64
  3
--------  -  -  --------  -  -  
 72
    65
 73
     6
 40
40.0
 49
30.0
 49
-2.5
 49
1.25
 49
-2.5
 49
1.25
 49
-2.5
  0
LTYPE
  2
LONG3
 70
    64
  3
+++++++++++++++..+++++++++++++++
 72
    65
 73
     2
 40
40.0
 49
37.5
 49
-2.5
  0
LTYPE
  2
LONG4
 70
    64
  3
+++++++++++++++..+++++++++++++++
 72
    65
 73
     2
 40
80.0
 49
75.0
 49
-5.0
  0
LTYPE
  2
LONG5
 70
    64
  3
----------  --  ----------  --  
 72
    65
 73
     4
 40
60.0
 49
37.5
 49
-7.5
 49
7.5
 49
-7.5
  0
LTYPE
  2
dashed
 70
   64
  3
-------   -------------   ------
 72
   65
 73
    2
 40
7.5
 49
6
 49
-1.5
  0
LTYPE
  2
dashed_spaced
 70
   64
  3
----        --------        ----
 72
   65
 73
    2
 40
12
 49
6
 49
-6
  0
LTYPE
  2
long_dashed_dotted
 70
   64
  3
------------- --- --------------
 72
   65
 73
    4
 40
15.25
 49
12
 49
-1.5
 49
0.25
 49
-1.5
  0
LTYPE
  2
long_dashed_double-dotted
 70
   64
  3
----------- --- --- ------------
 72
   65
 73
    6
 40
17
 49
12
 49
-1.5
 49
0.25
 49
-1.5
 49
0.25
 49
-1.5
  0
LTYPE
  2
long_dashed_triplicate-dotted
 70
   64
  3
--------- --- --- --- ----------
 72
   65
 73
    8
 40
18.75
 49
12
 49
-1.5
 49
0.25
 49
-1.5
 49
0.25
 49
-1.5
 49
0.25
 49
-1.5
  0
LTYPE
  2
dotted
 70
   64
  3
   -       -       -       -    
 72
   65
 73
    2
 40
1.75
 49
0.25
 49
-1.5
  0
LTYPE
  2
chain
 70
   64
  3
-------------- -- --------------
 72
   65
 73
    4
 40
18.5
 49
12
 49
-1.5
 49
3.5
 49
-1.5
  0
LTYPE
  2
chain_double_dash
 70
   64
  3
------------ -- -- -------------
 72
   65
 73
    6
 40
23.5
 49
12
 49
-1.5
 49
3.5
 49
-1.5
 49
3.5
 49
-1.5
  0
LTYPE
  2
dashed_dotted
 70
   64
  3
-----------     -     ----------
 72
   65
 73
    4
 40
9.25
 49
6
 49
-1.5
 49
0.25
 49
-1.5
  0
LTYPE
  2
double-dashed_dotted
 70
   64
  3
------   -----------   -   -----
 72
   65
 73
    6
 40
16.75
 49
6
 49
-1.5
 49
6
 49
-1.5
 49
0.25
 49
-1.5
  0
LTYPE
  2
dashed_double-dotted
 70
   64
  3
---------    -    -    ---------
 72
   65
 73
    6
 40
11
 49
6
 49
-1.5
 49
0.25
 49
-1.5
 49
0.25
 49
-1.5
  0
LTYPE
  2
double-dashed_double-dotted
 70
   64
  3
-----   ---------   -   -   ----
 72
   65
 73
    8
 40
18.5
 49
6
 49
-1.5
 49
6
 49
-1.5
 49
0.25
 49
-1.5
 49
0.25
 49
-1.5
  0
LTYPE
  2
dashed_triplicate-dotted
 70
   64
  3
-------    -    -    -    ------
 72
   65
 73
    8
 40
12.75
 49
6
 49
-1.5
 49
0.25
 49
-1.5
 49
0.25
 49
-1.5
 49
0.25
 49
-1.5
  0
LTYPE
  2
double-dashed_triplicate-dotted
 70
   64
  3
-----  ---------  -  -  -  -----
 72
   65
 73
   10
 40
20.25
 49
6
 49
-1.5
 49
6
 49
-1.5
 49
0.25
 49
-1.5
 49
0.25
 49
-1.5
 49
0.25
 49
-1.5
  0
LTYPE
  2
undefined
 70
   64
  3
--------------------------------
 72
   65
 73
    0
 40
0
  0
LTYPE
  2
STYLE_01
 70
   64
  3
----        --------        ----
 72
   65
 73
    2
 40
0.166656
 49
0.0833119999999999
 49
-0.083344
  0
LTYPE
  2
STYLE_02
 70
   64
  3
------     -----------     -----
 72
   65
 73
    2
 40
0.2777699999999999
 49
0.1944279999999999
 49
-0.0833419999999999
  0
LTYPE
  2
STYLE_03
 70
   64
  3
-------   -------------   ------
 72
   65
 73
    2
 40
0.5000000000000001
 49
0.416656
 49
-0.083344
  0
LTYPE
  2
STYLE_04
 70
   64
  3
-------  --------------  -------
 72
   65
 73
    2
 40
0.6110839999999999
 49
0.5277699999999999
 49
-0.0833139999999999
  0
LTYPE
  2
STYLE_05
 70
   64
  3
---           -----           --
 72
   65
 73
    2
 40
0.0833119999999999
 49
0.02777
 49
-0.055542
  0
LTYPE
  2
STYLE_06
 70
   64
  3
----------      --    ----------
 72
   65
 73
    4
 40
0.416656
 49
0.25
 49
-0.0833119999999999
 49
0.027772
 49
-0.055572
  0
LTYPE
  2
STYLE_07
 70
   64
  3
-----    -----------    -  -----
 72
   65
 73
    6
 40
0.75
 49
0.25
 49
-0.0833119999999999
 49
0.25
 49
-0.083344
 49
0.027772
 49
-0.055572
  0
LTYPE
  2
STYLE_08
 70
   64
  3
--------     --    --    -------
 72
   65
 73
    6
 40
0.5
 49
0.25
 49
-0.0833119999999999
 49
0.027772
 49
-0.055572
 49
0.027772
 49
-0.055572
  0
LTYPE
  2
STYLE_09
 70
   64
  3
------------  ----  ------------
 72
   65
 73
    4
 40
2
 49
1.5
 49
-0.1111139999999998
 49
0.277772
 49
-0.1111139999999998
  0
LTYPE
  2
STYLE_10
 70
   64
  3
----------- ---- ---  ----------
 72
   65
 73
    6
 40
2.375
 49
1.5
 49
-0.1111139999999998
 49
0.277772
 49
-0.1111139999999998
 49
0.25
 49
-0.125
  0
LTYPE
  2
STYLE_12
 70
   64
  3
-------- --------------- -------
 72
   65
 73
    2
 40
8.0001999999999995
 49
8
 49
-0.0001999999999995
  0
LTYPE
  2
STYLE_13
 70
   64
  3
---          ------          ---
 72
   65
 73
    2
 40
7.9999999999999982
 49
2.7769999999999988
 49
-5.2229999999999999
  0
LTYPE
  2
STYLE_14
 70
   64
  3
--------------- - --------------
 72
   65
 73
    4
 40
1.3582677165354324
 49
1.1811023622047241
 49
-0.0590551181102361
 49
0.0590551181102361
 49
-0.0590551181102361
  0
LTYPE
  2
STYLE_15
 70
   64
  3
------------- -- -- ------------
 72
   65
 73
    6
 40
1.0236220472440944
 49
0.7874015748031496
 49
-0.0393700787401575
 49
0.0590551181102361
 49
-0.0393700787401575
 49
0.0590551181102361
 49
-0.0393700787401574
  0
LTYPE
  2
STYLE_16
 70
   64
  3
------    ------------    ------
 72
   65
 73
    2
 40
0.1574803149606298
 49
0.1181102362204724
 49
-0.0393700787401575
  0
LTYPE
  2
STYLE_17
 70
   64
  3
----        --------        ----
 72
   65
 73
    2
 40
0.4
 49
0.2
 49
-0.2
  0
ENDTAB
  0
TABLE
  2
STYLE
  5
3
100
AcDbSymbolTable
 70
     1
  0
STYLE
  5
10
100
AcDbSymbolTableRecord
100
AcDbTextStyleTableRecord
  2
STANDARD
 70
     0
 40
0.0
 41
1.0
 50
0.0
 71
     0
 42
0.2
  3
txt
  4
bigfont.shx
  0
STYLE
  5
26
100
AcDbSymbolTableRecord
100
AcDbTextStyleTableRecord
  2
TATEGAKI
 70
    68
 40
0.0
 41
1.0
 50
0.0
 71
     0
 42
1.0
  3
txt
  4
bigfont.shx
  0
ENDTAB
  0
TABLE
  2
LAYER
 70
    8
  0
LAYER
  2
_0-0_0
 70
   64
 62
    7
  6
CONTINUOUS
  0
LAYER
  2
_1-0_
 70
   64
 62
    7
  6
CONTINUOUS
  0
LAYER
  2
_1-1_
 70
   64
 62
    7
  6
CONTINUOUS
  0
LAYER
  2
_1-2_
 70
   64
 62
    7
  6
CONTINUOUS
  0
LAYER
  2
_1-3_
 70
   64
 62
    7
  6
CONTINUOUS
  0
LAYER
  2
_1-8_
 70
   64
 62
    7
  6
CONTINUOUS
  0
LAYER
  2
_1-f_
 70
   64
 62
    7
  6
CONTINUOUS
  0
LAYER
  2
ADD_LINE
 70
   64
 62
    7
  6
CONTINUOUS
  0
ENDTAB
  0
ENDSEC
  0
SECTION
  2
BLOCKS
  0
ENDSEC
  0
SECTION
  2
ENTITIES
  0
TEXT
  8
_1-f_
 62
    7
 10
17800
 20
8626.469302413454
 40
200
 41
1
 50
0
  1
【オプティ】
  0
TEXT
  8
_1-f_
 62
    7
 10
24700
 20
8626.469302413454
 40
200
 41
1
 50
0
  1
【ビュージョン】
  0
TEXT
  8
_1-f_
 62
    7
 10
10500
 20
8626.469302413454
 40
200
 41
1
 50
0
  1
【ビュージョン】
  0
TEXT
  8
_1-f_
 62
    7
 10
3600
 20
8626.469302413454
 40
200
 41
1
 50
0
  1
【オプティ】
  0
CIRCLE
  8
_1-0_
  6
CONTINUOUS
 62
    7
 10
4200
 20
15812.563003447833
 40
1156.8529663467068
  0
CIRCLE
  8
_1-0_
  6
CONTINUOUS
 62
    7
 10
4200
 20
15812.563003447833
 40
1625
  0
LINE
  8
_1-f_
  6
CONTINUOUS
 62
    7
 10
2599.6874013551619
 20
15530.384714739072
 11
5800.3125986448367
 21
16094.741292156596
  0
LINE
  8
_1-f_
  6
CONTINUOUS
 62
    7
 10
5800.3125986448367
 20
16094.741292156596
 11
5619.0510412375061
 21
16010.217639808454
  0
LINE
  8
_1-f_
  6
CONTINUOUS
 62
    7
 10
5800.3125986448367
 20
16094.741292156596
 11
5601.0736590264887
 21
16112.172440706127
  0
LINE
  8
_1-f_
  6
CONTINUOUS
 62
    7
 10
2599.6874013551619
 20
15530.384714739072
 11
2780.9489587624926
 21
15614.90836708721
  0
LINE
  8
_1-f_
  6
CONTINUOUS
 62
    7
 10
2599.6874013551619
 20
15530.384714739072
 11
2798.9263409735104
 21
15512.953566189541
  0
TEXT
  8
_1-f_
 62
    7
 10
4630.853391942841
 20
15888.534081177117
 40
300
 41
1
 50
10.000000000000032
  1
Φ325
  0
LINE
  8
_1-0_
  6
CONTINUOUS
 62
    7
 10
5395.4247125492284
 20
9385.8514423733304
 11
5395.4247125492284
 21
9391.4435482772169
  0
LINE
  8
_1-0_
  6
CONTINUOUS
 62
    7
 10
5784.8305649755357
 20
9468.4620905697393
 11
5784.8305649755357
 21
9415.2730416371523
  0
LINE
  8
_1-0_
  6
CONTINUOUS
 62
    7
 10
5786.6553596848353
 20
9489.3198651753501
 11
5784.8305649755357
 21
9468.4620905697393
  0
ARC
  8
_1-0_
  6
CONTINUOUS
 62
    7
 10
5781.7882775053049
 20
9416.3538380216633
 40
43.211722487900431
 50
270.0000000000008
 51
0.0000000000000127
  0
LINE
  8
_1-0_
  6
CONTINUOUS
 62
    7
 10
5825.0000570743669
 20
9416.3538339763072
 11
5825.0000570743669
 21
9452.6022524024229
  0
ARC
  8
_1-0_
  6
CONTINUOUS
 62
    7
 10
5780.8275722345998
 20
9415.273044592137
 40
4.0029386278749071
 50
270.0000000000008
 51
0.0000000000000127
  0
LINE
  8
_1-0_
  6
CONTINUOUS
 62
    7
 10
5558.4628203466254
 20
9434.2870051001973
 11
5558.8645525479151
 21
9411.270109809202
  0
LINE
  8
_1-0_
  6
CONTINUOUS
 62
    7
 10
5543.8535768332104
 20
9411.270109809202
 11
5544.2553090344645
 21
9434.2870051001973
  0
LINE
  8
_1-0_
  6
CONTINUOUS
 62
    7
 10
5544.2553090344645
 20
9434.2870051001973
 11
5543.9570668657498
 21
9434.2870051001973
  0
LINE
  8
_1-0_
  6
CONTINUOUS
 62
    7
 10
5441.5635216548862
 20
9411.270109809202
 11
5441.3635502807538
 21
9434.1869308724908
  0
LINE
  8
_1-0_
  6
CONTINUOUS
 62
    7
 10
5427.6532086638426
 20
9434.1869308724908
 11
5427.4530881686242
 21
9411.270109809202
  0
LINE
  8
_1-0_
  6
CONTINUOUS
 62
    7
 10
5401.7793584380488
 20
9411.270109809202
 11
5401.3792665686997
 21
9388.3489502543543
  0
ARC
  8
_1-0_
  6
CONTINUOUS
 62
    7
 10
5398.8377370593271
 20
9388.3933117059569
 40
2.541866028700686
 50
270.0000000000008
 51
358.99999999973221
  0
ARC
  8
_1-0_
  6
CONTINUOUS
 62
    7
 10
5380.1495533126172
 20
9404.9154408925042
 40
31.77332535875005
 50
222.84364304359306
 51
270.0000000000008
  0
LINE
  8
_1-0_
  6
CONTINUOUS
 62
    7
 10
5356.8529037482203
 20
9385.8514423733304
 11
5356.8529037482203
 21
9383.3095802897824
  0
ARC
  8
_1-0_
  6
CONTINUOUS
 62
    7
 10
5793.7548214225881
 20
9488.8037073141313
 40
5.0837320574007885
 50
71.708479386860233
 51
90
  0
ARC
  8
_1-0_
  6
CONTINUOUS
 62
    7
 10
5781.7882775053049
 20
9452.6022504243338
 40
43.211722487900431
 50
0
 51
71.708479386869683
  0
ARC
  8
_1-0_
  6
CONTINUOUS
 62
    7
 10
5791.6399623733059
 20
9488.8837660866848
 40
5.0036732848436536
 50
90
 51
174.9999999999919
  0
LINE
  8
_1-0_
  6
CONTINUOUS
 62
    7
 10
5398.8377959280006
 20
9385.8514423733304
 11
5356.8529037482203
 21
9385.8514423733304
  0
LINE
  8
_1-0_
  6
CONTINUOUS
 62
    7
 10
5427.4530881686242
 20
9411.270109809202
 11
5401.7793584380488
 21
9411.270109809202
  0
LINE
  8
_1-0_
  6
CONTINUOUS
 62
    7
 10
5441.3635502807538
 20
9434.1869308724908
 11
5427.6532086638426
 21
9434.1869308724908
  0
LINE
  8
_1-0_
  6
CONTINUOUS
 62
    7
 10
5543.8535768332104
 20
9411.270109809202
 11
5441.5635216548862
 21
9411.270109809202
  0
LINE
  8
_1-0_
  6
CONTINUOUS
 62
    7
 10
5544.2553090344645
 20
9434.2870051001973
 11
5558.4628203466254
 21
9434.2870051001973
  0
LINE
  8
_1-0_
  6
CONTINUOUS
 62
    7
 10
5780.8275585870606
 20
9411.270109809202
 11
5558.8645525479151
 21
9411.270109809202
  0
LINE
  8
_1-0_
  6
CONTINUOUS
 62
    7
 10
5380.1494942730496
 20
9373.1421133154363
 11
5781.7883457335738
 21
9373.1421133154363
  0
LINE
  8
_1-0_
  6
CONTINUOUS
 62
    7
 10
5793.7548653899967
 20
9493.8874393291917
 11
5791.6400301716494
 21
9493.8874393291917
  0
LINE
  8
_1-0_
  6
CONTINUOUS
 62
    8
 10
5395.4247125492284
 20
9388.3489502543543
 11
5401.3792665686997
 21
9388.3489502543543
  0
ARC
  8
_1-0_
  6
CONTINUOUS
 62
    7
 10
5781.7882775053049
 20
11188.199234700605
 40
43.211722487900431
 50
270.0000000000008
 51
0.0000000000000127
  0
LINE
  8
_1-0_
  6
CONTINUOUS
 62
    7
 10
5825.0000570743669
 20
11188.199230655247
 11
5825.0000570743669
 21
11224.447649081363
  0
ARC
  8
_1-0_
  6
CONTINUOUS
 62
    7
 10
5793.7548214225881
 20
11260.64910399307
 40
5.0837320574007885
 50
71.708479386860233
 51
90
  0
ARC
  8
_1-0_
  6
CONTINUOUS
 62
    7
 10
5781.7882775053049
 20
11224.447647103272
 40
43.211722487900431
 50
0
 51
71.708479386869683
  0
LINE
  8
_1-0_
  6
CONTINUOUS
 62
    7
 10
5380.1494942730496
 20
11144.987509994377
 11
5781.7883457335738
 21
11144.987509994377
  0
LINE
  8
_1-0_
  6
CONTINUOUS
 62
    7
 10
5793.7548653899967
 20
11265.732836008132
 11
5791.6400301716494
 21
11265.732836008132
  0
LINE
  8
_1-0_
  6
CONTINUOUS
 62
    7
 10
5793.7548214225899
 20
11265.732836050469
 11
4200
 21
11265.732836050469
  0
LINE
  8
_1-0_
  6
CONTINUOUS
 62
    7
 10
3004.5752874507698
 20
9391.4435482772169
 11
3004.5752874507698
 21
9385.8514423733304
  0
LINE
  8
_1-0_
  6
CONTINUOUS
 62
    7
 10
2615.1694350244611
 20
9415.2730416371523
 11
2615.1694350244611
 21
9468.4620905697393
  0
ARC
  8
_1-0_
  6
CONTINUOUS
 62
    7
 10
2619.1724277653989
 20
9415.273044592137
 40
4.0029386278749071
 50
180
 51
270.0000000000008
  0
LINE
  8
_1-0_
  6
CONTINUOUS
 62
    7
 10
2841.1354474520822
 20
9411.270109809202
 11
2619.1724414129367
 21
9411.270109809202
  0
LINE
  8
_1-0_
  6
CONTINUOUS
 62
    7
 10
2841.1354474520822
 20
9411.270109809202
 11
2841.5371796533364
 21
9434.2870051001973
  0
LINE
  8
_1-0_
  6
CONTINUOUS
 62
    7
 10
2841.5371796533364
 20
9434.2870051001973
 11
2855.7446909654973
 21
9434.2870051001973
  0
LINE
  8
_1-0_
  6
CONTINUOUS
 62
    7
 10
2855.7446909654973
 20
9434.2870051001973
 11
2856.1464231667869
 21
9411.270109809202
  0
LINE
  8
_1-0_
  6
CONTINUOUS
 62
    7
 10
2958.4364783451119
 20
9411.270109809202
 11
2856.1464231667869
 21
9411.270109809202
  0
LINE
  8
_1-0_
  6
CONTINUOUS
 62
    7
 10
2958.6364497192435
 20
9434.1869308724908
 11
2958.4364783451119
 21
9411.270109809202
  0
LINE
  8
_1-0_
  6
CONTINUOUS
 62
    7
 10
2972.346791336156
 20
9434.1869308724908
 11
2958.6364497192435
 21
9434.1869308724908
  0
LINE
  8
_1-0_
  6
CONTINUOUS
 62
    7
 10
2972.546911831374
 20
9411.270109809202
 11
2972.346791336156
 21
9434.1869308724908
  0
LINE
  8
_1-0_
  6
CONTINUOUS
 62
    7
 10
2998.2206415619485
 20
9411.270109809202
 11
2972.546911831374
 21
9411.270109809202
  0
LINE
  8
_1-0_
  6
CONTINUOUS
 62
    7
 10
2998.6207334312626
 20
9388.3489502543543
 11
2998.2206415619485
 21
9411.270109809202
  0
ARC
  8
_1-0_
  6
CONTINUOUS
 62
    7
 10
3001.1622629406716
 20
9388.3933117059569
 40
2.541866028700686
 50
181.00000000026941
 51
270.0000000000008
  0
LINE
  8
_1-0_
  6
CONTINUOUS
 62
    7
 10
3043.1470962517765
 20
9385.8514423733304
 11
3001.1622040719972
 21
9385.8514423733304
  0
LINE
  8
_1-0_
  6
CONTINUOUS
 62
    7
 10
3043.1470962517765
 20
9383.3095802897824
 11
3043.1470962517765
 21
9385.8514423733304
  0
ARC
  8
_1-0_
  6
CONTINUOUS
 62
    7
 10
3019.8504466873815
 20
9404.9154408925042
 40
31.773325358748728
 50
270.0000000000008
 51
317.15635695640628
  0
LINE
  8
_1-0_
  6
CONTINUOUS
 62
    7
 10
2618.2116542664248
 20
9373.1421133154363
 11
3019.8505057269485
 21
9373.1421133154363
  0
ARC
  8
_1-0_
  6
CONTINUOUS
 62
    7
 10
2618.2117224946924
 20
9416.3538380216633
 40
43.211722487900431
 50
180
 51
270.0000000000008
  0
LINE
  8
_1-0_
  6
CONTINUOUS
 62
    7
 10
2574.9999429256304
 20
9452.6022524024229
 11
2574.9999429256304
 21
9416.3538339763072
  0
ARC
  8
_1-0_
  6
CONTINUOUS
 62
    7
 10
2618.2117224946924
 20
9452.6022504243338
 40
43.211722487900431
 50
108.2915206131281
 51
180
  0
ARC
  8
_1-0_
  6
CONTINUOUS
 62
    7
 10
2606.2451785774101
 20
9488.8037073141313
 40
5.0837320574007885
 50
90
 51
108.29152061313978
  0
LINE
  8
_1-0_
  6
CONTINUOUS
 62
    7
 10
2608.3599698283492
 20
9493.8874393291917
 11
2606.245134610002
 21
9493.8874393291917
  0
ARC
  8
_1-0_
  6
CONTINUOUS
 62
    7
 10
2608.3600376266559
 20
9488.8837660866848
 40
5.0036732848431962
 50
5.0000000000099334
 51
90
  0
LINE
  8
_1-0_
  6
CONTINUOUS
 62
    7
 10
2615.1694350244611
 20
9468.4620905697393
 11
2613.3446403151625
 21
9489.3198651753501
  0
LINE
  8
_1-0_
  6
CONTINUOUS
 62
    8
 10
2998.6207334312626
 20
9388.3489502543543
 11
3004.5752874507698
 21
9388.3489502543543
  0
LINE
  8
_1-0_
  6
CONTINUOUS
 62
    7
 10
2618.2116542664248
 20
11144.987509994377
 11
3019.8505057269485
 21
11144.987509994377
  0
ARC
  8
_1-0_
  6
CONTINUOUS
 62
    7
 10
2618.2117224946924
 20
11188.199234700605
 40
43.211722487900431
 50
180
 51
270.0000000000008
  0
LINE
  8
_1-0_
  6
CONTINUOUS
 62
    7
 10
2574.9999429256304
 20
11224.447649081363
 11
2574.9999429256304
 21
11188.199230655247
  0
ARC
  8
_1-0_
  6
CONTINUOUS
 62
    7
 10
2618.2117224946924
 20
11224.447647103272
 40
43.211722487900431
 50
108.2915206131281
 51
180
  0
ARC
  8
_1-0_
  6
CONTINUOUS
 62
    7
 10
2606.2451785774101
 20
11260.64910399307
 40
5.0837320574007885
 50
90
 51
108.29152061313978
  0
LINE
  8
_1-0_
  6
CONTINUOUS
 62
    7
 10
2608.3599698283492
 20
11265.732836008132
 11
2606.245134610002
 21
11265.732836008132
  0
LINE
  8
_1-0_
  6
CONTINUOUS
 62
    7
 10
2606.2451785774101
 20
11265.732836050469
 11
4200
 21
11265.732836050469
  0
LINE
  8
ADD_LINE
  6
DOT
 62
    1
 10
3019.8504466873815
 20
9373.1421133154363
 11
3019.8505057269485
 21
9373.1421133154363
  0
LINE
  8
ADD_LINE
  6
DOT
 62
    1
 10
3019.8504466873815
 20
9373.1421133154363
 11
3019.8505057269485
 21
9373.1421133154363
  0
LINE
  8
_1-0_
  6
CONTINUOUS
 62
    7
 10
3004.5752874507698
 20
9385.8514423733304
 11
5395.4247125492284
 21
9385.8514423733304
  0
LINE
  8
_1-0_
  6
CONTINUOUS
 62
    7
 10
3004.5752874507698
 20
9391.4435482772169
 11
5395.4247125492284
 21
9391.4435482772169
  0
LINE
  8
_1-0_
  6
CONTINUOUS
 62
    7
 10
2998.2206415619485
 20
9411.270109809202
 11
5401.7793584380488
 21
9411.270109809202
  0
LINE
  8
_1-0_
  6
CONTINUOUS
 62
    7
 10
3043.1470962517765
 20
9383.3095802897824
 11
5356.8529037482203
 21
9383.3095802897824
  0
LINE
  8
_1-0_
  6
CONTINUOUS
 62
    7
 10
3019.8505057269485
 20
9373.1421133154363
 11
5380.1494942730496
 21
9373.1421133154363
  0
LINE
  8
_1-0_
  6
CONTINUOUS
 62
    7
 10
3019.8505057269485
 20
11144.987509994377
 11
5380.1494942730496
 21
11144.987509994377
  0
LINE
  8
_1-0_
  6
CONTINUOUS
 62
    7
 10
27195.424712549233
 20
9385.8514423733304
 11
27195.424712549233
 21
9391.4435482772169
  0
LINE
  8
_1-0_
  6
CONTINUOUS
 62
    7
 10
23804.575287450767
 20
9385.8514423733304
 11
27195.424712549233
 21
9385.8514423733304
  0
LINE
  8
_1-0_
  6
CONTINUOUS
 62
    7
 10
23804.575287450767
 20
9391.4435482772169
 11
23804.575287450767
 21
9385.8514423733304
  0
LINE
  8
_1-0_
  6
CONTINUOUS
 62
    7
 10
23804.575287450767
 20
9391.4435482772169
 11
27195.424712549233
 21
9391.4435482772169
  0
LINE
  8
_1-0_
  6
CONTINUOUS
 62
    7
 10
27584.830564975538
 20
9468.4620905697393
 11
27584.830564975538
 21
9415.2730416371523
  0
LINE
  8
_1-0_
  6
CONTINUOUS
 62
    7
 10
23415.169435024462
 20
9415.2730416371523
 11
23415.169435024462
 21
9468.4620905697393
  0
LINE
  8
_1-0_
  6
CONTINUOUS
 62
    7
 10
27586.655359684835
 20
9489.3198651753501
 11
27584.830564975538
 21
9468.4620905697393
  0
ARC
  8
_1-0_
  6
CONTINUOUS
 62
    7
 10
23419.172427765399
 20
9415.273044592137
 40
4.0029386278749071
 50
180
 51
270.0000000000008
  0
LINE
  8
_1-0_
  6
CONTINUOUS
 62
    7
 10
23641.135447452081
 20
9411.270109809202
 11
23419.172441412938
 21
9411.270109809202
  0
LINE
  8
_1-0_
  6
CONTINUOUS
 62
    7
 10
23641.135447452081
 20
9411.270109809202
 11
23641.537179653336
 21
9434.2870051001973
  0
LINE
  8
_1-0_
  6
CONTINUOUS
 62
    7
 10
23641.537179653336
 20
9434.2870051001973
 11
23655.744690965497
 21
9434.2870051001973
  0
LINE
  8
_1-0_
  6
CONTINUOUS
 62
    7
 10
23655.744690965497
 20
9434.2870051001973
 11
23656.146423166785
 21
9411.270109809202
  0
LINE
  8
_1-0_
  6
CONTINUOUS
 62
    7
 10
23758.436478345113
 20
9411.270109809202
 11
23656.146423166785
 21
9411.270109809202
  0
LINE
  8
_1-0_
  6
CONTINUOUS
 62
    7
 10
23758.636449719244
 20
9434.1869308724908
 11
23758.436478345113
 21
9411.270109809202
  0
LINE
  8
_1-0_
  6
CONTINUOUS
 62
    7
 10
23772.346791336156
 20
9434.1869308724908
 11
23758.636449719244
 21
9434.1869308724908
  0
LINE
  8
_1-0_
  6
CONTINUOUS
 62
    7
 10
23772.546911831374
 20
9411.270109809202
 11
23772.346791336156
 21
9434.1869308724908
  0
LINE
  8
_1-0_
  6
CONTINUOUS
 62
    7
 10
23798.220641561948
 20
9411.270109809202
 11
23772.546911831374
 21
9411.270109809202
  0
LINE
  8
_1-0_
  6
CONTINUOUS
 62
    7
 10
23798.62073343126
 20
9388.3489502543543
 11
23798.220641561948
 21
9411.270109809202
  0
ARC
  8
_1-0_
  6
CONTINUOUS
 62
    7
 10
23801.16226294067
 20
9388.3933117059569
 40
2.541866028700686
 50
181.00000000026941
 51
270.0000000000008
  0
LINE
  8
_1-0_
  6
CONTINUOUS
 62
    7
 10
23843.147096251778
 20
9385.8514423733304
 11
23801.162204071996
 21
9385.8514423733304
  0
LINE
  8
_1-0_
  6
CONTINUOUS
 62
    7
 10
23843.147096251778
 20
9383.3095802897824
 11
23843.147096251778
 21
9385.8514423733304
  0
ARC
  8
_1-0_
  6
CONTINUOUS
 62
    7
 10
23819.850446687382
 20
9404.9154408925042
 40
31.773325358748728
 50
270.0000000000008
 51
317.15635695640628
  0
LINE
  8
_1-0_
  6
CONTINUOUS
 62
    7
 10
23418.211654266423
 20
9373.1421133154363
 11
23819.850505726947
 21
9373.1421133154363
  0
ARC
  8
_1-0_
  6
CONTINUOUS
 62
    7
 10
23418.211722494692
 20
9416.3538380216633
 40
43.211722487900431
 50
180
 51
270.0000000000008
  0
LINE
  8
_1-0_
  6
CONTINUOUS
 62
    7
 10
23374.999942925631
 20
9452.6022524024229
 11
23374.999942925631
 21
9416.3538339763072
  0
ARC
  8
_1-0_
  6
CONTINUOUS
 62
    7
 10
23418.211722494692
 20
9452.6022504243338
 40
43.211722487900431
 50
108.2915206131281
 51
180
  0
ARC
  8
_1-0_
  6
CONTINUOUS
 62
    7
 10
23406.24517857741
 20
9488.8037073141313
 40
5.0837320574007885
 50
90
 51
108.29152061313978
  0
LINE
  8
_1-0_
  6
CONTINUOUS
 62
    7
 10
23408.359969828347
 20
9493.8874393291917
 11
23406.245134610002
 21
9493.8874393291917
  0
ARC
  8
_1-0_
  6
CONTINUOUS
 62
    7
 10
23408.360037626655
 20
9488.8837660866848
 40
5.0036732848431962
 50
5.0000000000099334
 51
90
  0
LINE
  8
_1-0_
  6
CONTINUOUS
 62
    7
 10
23415.169435024462
 20
9468.4620905697393
 11
23413.344640315161
 21
9489.3198651753501
  0
ARC
  8
_1-0_
  6
CONTINUOUS
 62
    7
 10
27581.7882775053
 20
9416.3538380216633
 40
43.211722487900431
 50
270.0000000000008
 51
0.0000000000000127
  0
LINE
  8
_1-0_
  6
CONTINUOUS
 62
    7
 10
27625.000057074369
 20
9416.3538339763072
 11
27625.000057074369
 21
9452.6022524024229
  0
ARC
  8
_1-0_
  6
CONTINUOUS
 62
    7
 10
27580.827572234601
 20
9415.273044592137
 40
4.0029386278749071
 50
270.0000000000008
 51
0.0000000000000127
  0
LINE
  8
_1-0_
  6
CONTINUOUS
 62
    7
 10
27358.462820346624
 20
9434.2870051001973
 11
27358.864552547915
 21
9411.270109809202
  0
LINE
  8
_1-0_
  6
CONTINUOUS
 62
    7
 10
27343.853576833208
 20
9411.270109809202
 11
27344.255309034463
 21
9434.2870051001973
  0
LINE
  8
_1-0_
  6
CONTINUOUS
 62
    7
 10
27344.255309034463
 20
9434.2870051001973
 11
27343.957066865751
 21
9434.2870051001973
  0
LINE
  8
_1-0_
  6
CONTINUOUS
 62
    7
 10
27241.563521654887
 20
9411.270109809202
 11
27241.363550280756
 21
9434.1869308724908
  0
LINE
  8
_1-0_
  6
CONTINUOUS
 62
    7
 10
27227.653208663844
 20
9434.1869308724908
 11
27227.453088168626
 21
9411.270109809202
  0
LINE
  8
_1-0_
  6
CONTINUOUS
 62
    7
 10
27201.779358438045
 20
9411.270109809202
 11
27201.3792665687
 21
9388.3489502543543
  0
LINE
  8
_1-0_
  6
CONTINUOUS
 62
    7
 10
23798.220641561948
 20
9411.270109809202
 11
27201.779358438045
 21
9411.270109809202
  0
ARC
  8
_1-0_
  6
CONTINUOUS
 62
    7
 10
27198.83773705933
 20
9388.3933117059569
 40
2.541866028700686
 50
270.0000000000008
 51
358.99999999973221
  0
LINE
  8
_1-0_
  6
CONTINUOUS
 62
    7
 10
23843.147096251778
 20
9383.3095802897824
 11
27156.852903748222
 21
9383.3095802897824
  0
ARC
  8
_1-0_
  6
CONTINUOUS
 62
    7
 10
27180.149553312618
 20
9404.9154408925042
 40
31.77332535875005
 50
222.84364304359306
 51
270.0000000000008
  0
LINE
  8
_1-0_
  6
CONTINUOUS
 62
    7
 10
23819.850505726947
 20
9373.1421133154363
 11
27180.149494273053
 21
9373.1421133154363
  0
LINE
  8
_1-0_
  6
CONTINUOUS
 62
    7
 10
27156.852903748222
 20
9385.8514423733304
 11
27156.852903748222
 21
9383.3095802897824
  0
ARC
  8
_1-0_
  6
CONTINUOUS
 62
    7
 10
27593.75482142259
 20
9488.8037073141313
 40
5.0837320574007885
 50
71.708479386860233
 51
90
  0
ARC
  8
_1-0_
  6
CONTINUOUS
 62
    7
 10
27581.7882775053
 20
9452.6022504243338
 40
43.211722487900431
 50
0
 51
71.708479386869683
  0
ARC
  8
_1-0_
  6
CONTINUOUS
 62
    7
 10
27591.639962373309
 20
9488.8837660866848
 40
5.0036732848436536
 50
90
 51
174.9999999999919
  0
LINE
  8
_1-0_
  6
CONTINUOUS
 62
    7
 10
27198.837795928001
 20
9385.8514423733304
 11
27156.852903748222
 21
9385.8514423733304
  0
LINE
  8
_1-0_
  6
CONTINUOUS
 62
    7
 10
27227.453088168626
 20
9411.270109809202
 11
27201.779358438045
 21
9411.270109809202
  0
LINE
  8
_1-0_
  6
CONTINUOUS
 62
    7
 10
27241.363550280756
 20
9434.1869308724908
 11
27227.653208663844
 21
9434.1869308724908
  0
LINE
  8
_1-0_
  6
CONTINUOUS
 62
    7
 10
27343.853576833208
 20
9411.270109809202
 11
27241.563521654887
 21
9411.270109809202
  0
LINE
  8
_1-0_
  6
CONTINUOUS
 62
    7
 10
27344.255309034463
 20
9434.2870051001973
 11
27358.462820346624
 21
9434.2870051001973
  0
LINE
  8
_1-0_
  6
CONTINUOUS
 62
    7
 10
27580.827558587062
 20
9411.270109809202
 11
27358.864552547915
 21
9411.270109809202
  0
LINE
  8
_1-0_
  6
CONTINUOUS
 62
    7
 10
27180.149494273053
 20
9373.1421133154363
 11
27581.78834573357
 21
9373.1421133154363
  0
LINE
  8
_1-0_
  6
CONTINUOUS
 62
    7
 10
27593.754865389998
 20
9493.8874393291917
 11
27591.640030171653
 21
9493.8874393291917
  0
LINE
  8
_1-0_
  6
CONTINUOUS
 62
    8
 10
23798.62073343126
 20
9388.3489502543543
 11
23804.575287450767
 21
9388.3489502543543
  0
LINE
  8
_1-0_
  6
CONTINUOUS
 62
    8
 10
27195.424712549233
 20
9388.3489502543543
 11
27201.3792665687
 21
9388.3489502543543
  0
LINE
  8
ADD_LINE
  6
DOT
 62
    1
 10
23819.850446687382
 20
9373.1421133154363
 11
23819.850505726947
 21
9373.1421133154363
  0
LINE
  8
ADD_LINE
  6
DOT
 62
    1
 10
23819.850446687382
 20
9373.1421133154363
 11
23819.850505726947
 21
9373.1421133154363
  0
CIRCLE
  8
_1-0_
  6
CONTINUOUS
 62
    7
 10
18400
 20
15812.563003447833
 40
1656.8529663467075
  0
CIRCLE
  8
_1-0_
  6
CONTINUOUS
 62
    7
 10
18400
 20
15812.563003447833
 40
2125
  0
LINE
  8
_0-0_0
  6
CONTINUOUS
 62
    7
 10
650
 20
1626.4693024134544
 11
29050
 21
1626.4693024134544
  0
LINE
  8
_0-0_0
  6
CONTINUOUS
 62
    7
 10
3153.8519768100914
 20
1626.4693024134544
 11
3153.8519768100914
 21
561.46930241345103
  0
LINE
  8
_0-0_0
  6
CONTINUOUS
 62
    7
 10
26777.681976810094
 20
1626.4693024134544
 11
26777.681976810094
 21
561.46930241345103
  0
LINE
  8
_0-0_0
  6
CONTINUOUS
 62
    7
 10
13784.681976810094
 20
1626.4693024134544
 11
13784.681976810094
 21
561.46930241345103
  0
LINE
  8
_0-0_0
  6
CONTINUOUS
 62
    7
 10
3153.8519768100914
 20
1271.4693024134533
 11
13784.681976810094
 21
1271.4693024134533
  0
LINE
  8
_0-0_0
  6
CONTINUOUS
 62
    7
 10
3153.8519768100914
 20
916.46930241345217
 11
13784.681976810094
 21
916.46930241345217
  0
LINE
  8
_0-0_0
  6
CONTINUOUS
 62
    7
 10
650
 20
559.99999999999659
 11
29050
 21
559.99999999999659
  0
LINE
  8
_0-0_0
  6
CONTINUOUS
 62
    7
 10
29050
 20
559.99999999999659
 11
29050
 21
20439.999999999996
  0
LINE
  8
_0-0_0
  6
CONTINUOUS
 62
    7
 10
29050
 20
20439.999999999996
 11
650
 21
20439.999999999996
  0
LINE
  8
_0-0_0
  6
CONTINUOUS
 62
    7
 10
650
 20
20439.999999999996
 11
650
 21
559.99999999999659
  0
LINE
  8
_0-0_0
  6
CONTINUOUS
 62
    7
 10
25712.681976810098
 20
1626.4693024134544
 11
25712.681976810098
 21
561.46930241345103
  0
LINE
  8
_0-0_0
  6
CONTINUOUS
 62
    7
 10
20884.681976810101
 20
1626.4693024134544
 11
20884.681976810101
 21
561.46930241345103
  0
LINE
  8
_0-0_0
  6
CONTINUOUS
 62
    7
 10
18044.68197681009
 20
1626.4693024134544
 11
18044.68197681009
 21
561.46930241345103
  0
LINE
  8
_0-0_0
  6
CONTINUOUS
 62
    7
 10
20884.681976810101
 20
1093.9693024134526
 11
22872.681976810101
 21
1093.9693024134526
  0
LINE
  8
_0-0_0
  6
CONTINUOUS
 62
    7
 10
22872.681976810101
 20
1626.4693024134544
 11
22872.681976810101
 21
561.46930241345103
  0
CIRCLE
  8
_0-0_0
  6
CONTINUOUS
 62
    7
 10
3080.7895833068642
 20
1132.6360675430067
 40
33.497738765761348
  0
LINE
  8
_0-0_0
  6
CONTINUOUS
 62
    7
 10
1354.008681199474
 20
1425.0166666666614
 11
715.0086811994754
 21
1425.0166666666614
  0
LINE
  8
_0-0_0
  6
CONTINUOUS
 62
    7
 10
715.0086811994754
 20
1425.0166666666614
 11
715.0086811994754
 21
786.01666666666006
  0
LINE
  8
_0-0_0
  6
CONTINUOUS
 62
    7
 10
715.0086811994754
 20
786.01666666666006
 11
910.81779632916664
 21
981.82578179635129
  0
LINE
  8
_0-0_0
  6
CONTINUOUS
 62
    7
 10
1158.1995660697828
 20
1229.2075515369675
 11
1354.008681199474
 21
1425.0166666666614
  0
ARC
  8
_0-0_0
  6
CONTINUOUS
 62
    7
 10
1013.3743478661415
 20
1126.6509999999982
 40
177.4603902026831
 50
35.303842184756199
 51
234.69615781526858
  0
LINE
  8
_0-0_0
  6
CONTINUOUS
 62
    7
 10
1350.4586811994727
 20
1421.4666666666631
 11
715.0086811994754
 21
1421.4666666666631
  0
LINE
  8
_0-0_0
  6
CONTINUOUS
 62
    7
 10
1346.9086811994714
 20
1417.9166666666617
 11
715.0086811994754
 21
1417.9166666666617
  0
LINE
  8
_0-0_0
  6
CONTINUOUS
 62
    7
 10
1343.3586811994701
 20
1414.3666666666604
 11
715.0086811994754
 21
1414.3666666666604
  0
LINE
  8
_0-0_0
  6
CONTINUOUS
 62
    7
 10
1339.8086811994744
 20
1410.8166666666591
 11
715.0086811994754
 21
1410.8166666666591
  0
LINE
  8
_0-0_0
  6
CONTINUOUS
 62
    7
 10
1336.2586811994731
 20
1407.2666666666605
 11
715.0086811994754
 21
1407.2666666666605
  0
LINE
  8
_0-0_0
  6
CONTINUOUS
 62
    7
 10
1332.7086811994718
 20
1403.7166666666621
 11
715.0086811994754
 21
1403.7166666666621
  0
LINE
  8
_0-0_0
  6
CONTINUOUS
 62
    7
 10
1329.1586811994705
 20
1400.1666666666579
 11
715.0086811994754
 21
1400.1666666666608
  0
LINE
  8
_0-0_0
  6
CONTINUOUS
 62
    7
 10
1325.6086811994692
 20
1396.6166666666595
 11
715.0086811994754
 21
1396.6166666666622
  0
LINE
  8
_0-0_0
  6
CONTINUOUS
 62
    7
 10
1322.0586811994735
 20
1393.0666666666611
 11
715.0086811994754
 21
1393.0666666666611
  0
LINE
  8
_0-0_0
  6
CONTINUOUS
 62
    7
 10
1318.5086811994722
 20
1389.5166666666596
 11
715.0086811994754
 21
1389.5166666666596
  0
LINE
  8
_0-0_0
  6
CONTINUOUS
 62
    7
 10
1314.9586811994709
 20
1385.9666666666612
 11
715.0086811994754
 21
1385.9666666666612
  0
LINE
  8
_0-0_0
  6
CONTINUOUS
 62
    7
 10
1311.4086811994696
 20
1382.4166666666599
 11
715.0086811994754
 21
1382.4166666666599
  0
LINE
  8
_0-0_0
  6
CONTINUOUS
 62
    7
 10
1307.8586811994739
 20
1378.8666666666613
 11
715.0086811994754
 21
1378.8666666666613
  0
LINE
  8
_0-0_0
  6
CONTINUOUS
 62
    7
 10
1304.3086811994726
 20
1375.3166666666602
 11
715.0086811994754
 21
1375.3166666666602
  0
LINE
  8
_0-0_0
  6
CONTINUOUS
 62
    7
 10
1300.7586811994713
 20
1371.7666666666616
 11
715.0086811994754
 21
1371.7666666666616
  0
LINE
  8
_0-0_0
  6
CONTINUOUS
 62
    7
 10
1297.20868119947
 20
1368.2166666666603
 11
715.0086811994754
 21
1368.2166666666603
  0
LINE
  8
_0-0_0
  6
CONTINUOUS
 62
    7
 10
1293.6586811994744
 20
1364.666666666659
 11
715.0086811994754
 21
1364.666666666659
  0
LINE
  8
_0-0_0
  6
CONTINUOUS
 62
    7
 10
1290.108681199473
 20
1361.1166666666634
 11
715.0086811994754
 21
1361.1166666666634
  0
LINE
  8
_0-0_0
  6
CONTINUOUS
 62
    7
 10
1286.5586811994717
 20
1357.5666666666593
 11
715.0086811994754
 21
1357.5666666666621
  0
LINE
  8
_0-0_0
  6
CONTINUOUS
 62
    7
 10
1283.0086811994761
 20
1354.0166666666607
 11
715.0086811994754
 21
1354.0166666666607
  0
LINE
  8
_0-0_0
  6
CONTINUOUS
 62
    7
 10
1279.4586811994748
 20
1350.4666666666594
 11
715.0086811994754
 21
1350.4666666666594
  0
LINE
  8
_0-0_0
  6
CONTINUOUS
 62
    7
 10
1275.9086811994734
 20
1346.9166666666611
 11
715.0086811994754
 21
1346.9166666666611
  0
LINE
  8
_0-0_0
  6
CONTINUOUS
 62
    7
 10
1272.3586811994721
 20
1343.3666666666595
 11
715.0086811994754
 21
1343.3666666666625
  0
LINE
  8
_0-0_0
  6
CONTINUOUS
 62
    7
 10
1268.8086811994708
 20
1339.8166666666584
 11
715.0086811994754
 21
1339.8166666666611
  0
LINE
  8
_0-0_0
  6
CONTINUOUS
 62
    7
 10
1265.2586811994695
 20
1336.2666666666598
 11
715.0086811994754
 21
1336.2666666666598
  0
LINE
  8
_0-0_0
  6
CONTINUOUS
 62
    7
 10
1261.7086811994682
 20
1332.7166666666612
 11
715.0086811994754
 21
1332.7166666666612
  0
LINE
  8
_0-0_0
  6
CONTINUOUS
 62
    7
 10
1258.1586811994725
 20
1329.1666666666572
 11
715.0086811994754
 21
1329.1666666666601
  0
LINE
  8
_0-0_0
  6
CONTINUOUS
 62
    7
 10
1254.6086811994712
 20
1325.6166666666616
 11
715.0086811994754
 21
1325.6166666666616
  0
LINE
  8
_0-0_0
  6
CONTINUOUS
 62
    7
 10
1251.0586811994699
 20
1322.0666666666602
 11
715.0086811994754
 21
1322.0666666666602
  0
LINE
  8
_0-0_0
  6
CONTINUOUS
 62
    7
 10
1247.5086811994743
 20
1318.5166666666589
 11
715.0086811994754
 21
1318.5166666666589
  0
LINE
  8
_0-0_0
  6
CONTINUOUS
 62
    7
 10
1243.9586811994729
 20
1314.9666666666576
 11
715.0086811994754
 21
1314.9666666666633
  0
LINE
  8
_0-0_0
  6
CONTINUOUS
 62
    7
 10
1240.4086811994716
 20
1311.4166666666592
 11
715.0086811994754
 21
1311.416666666662
  0
LINE
  8
_0-0_0
  6
CONTINUOUS
 62
    7
 10
1236.8586811994703
 20
1307.8666666666606
 11
715.0086811994754
 21
1307.8666666666606
  0
LINE
  8
_0-0_0
  6
CONTINUOUS
 62
    7
 10
1233.3086811994747
 20
1304.3166666666593
 11
715.0086811994754
 21
1304.3166666666593
  0
LINE
  8
_0-0_0
  6
CONTINUOUS
 62
    7
 10
1229.7586811994734
 20
1300.766666666658
 11
1047.6661065278336
 21
1300.766666666658
  0
LINE
  8
_0-0_0
  6
CONTINUOUS
 62
    7
 10
979.08258920443814
 20
1300.766666666658
 11
715.0086811994754
 21
1300.766666666658
  0
LINE
  8
_0-0_0
  6
CONTINUOUS
 62
    7
 10
1226.208681199472
 20
1297.2166666666594
 11
1062.359482809768
 21
1297.2166666666624
  0
LINE
  8
_0-0_0
  6
CONTINUOUS
 62
    7
 10
964.38921292251507
 20
1297.2166666666624
 11
715.0086811994754
 21
1297.2166666666624
  0
LINE
  8
_0-0_0
  6
CONTINUOUS
 62
    7
 10
1222.6586811994707
 20
1293.6666666666583
 11
1073.3573219402786
 21
1293.6666666666583
  0
LINE
  8
_0-0_0
  6
CONTINUOUS
 62
    7
 10
953.39137379199315
 20
1293.6666666666583
 11
715.0086811994754
 21
1293.6666666666611
  0
LINE
  8
_0-0_0
  6
CONTINUOUS
 62
    7
 10
1219.1086811994751
 20
1290.1166666666597
 11
1082.4479746140696
 21
1290.1166666666597
  0
LINE
  8
_0-0_0
  6
CONTINUOUS
 62
    7
 10
944.30072111820778
 20
1290.1166666666597
 11
715.0086811994754
 21
1290.1166666666597
  0
LINE
  8
_0-0_0
  6
CONTINUOUS
 62
    7
 10
1215.5586811994738
 20
1286.5666666666611
 11
1090.3104879138766
 21
1286.5666666666611
  0
LINE
  8
_0-0_0
  6
CONTINUOUS
 62
    7
 10
936.43820781840077
 20
1286.5666666666611
 11
715.0086811994754
 21
1286.5666666666611
  0
LINE
  8
_0-0_0
  6
CONTINUOUS
 62
    7
 10
1212.0086811994724
 20
1283.0166666666601
 11
1097.2907847469969
 21
1283.0166666666601
  0
LINE
  8
_0-0_0
  6
CONTINUOUS
 62
    7
 10
929.45791098528048
 20
1283.0166666666601
 11
715.0086811994754
 21
1283.0166666666601
  0
LINE
  8
_0-0_0
  6
CONTINUOUS
 62
    7
 10
1208.4586811994711
 20
1279.4666666666585
 11
1103.5938696566689
 21
1279.4666666666615
  0
LINE
  8
_0-0_0
  6
CONTINUOUS
 62
    7
 10
923.15482607560853
 20
1279.4666666666615
 11
715.0086811994754
 21
1279.4666666666615
  0
LINE
  8
_0-0_0
  6
CONTINUOUS
 62
    7
 10
1204.9086811994698
 20
1275.9166666666601
 11
1109.3532562025302
 21
1275.9166666666601
  0
LINE
  8
_0-0_0
  6
CONTINUOUS
 62
    7
 10
917.39543952974714
 20
1275.9166666666601
 11
715.0086811994754
 21
1275.9166666666601
  0
LINE
  8
_0-0_0
  6
CONTINUOUS
 62
    7
 10
1201.3586811994742
 20
1272.3666666666618
 11
1114.6617339454451
 21
1272.3666666666588
  0
LINE
  8
_0-0_0
  6
CONTINUOUS
 62
    7
 10
912.08696178682658
 20
1272.3666666666588
 11
715.0086811994754
 21
1272.3666666666618
  0
LINE
  8
_0-0_0
  6
CONTINUOUS
 62
    7
 10
1197.8086811994729
 20
1268.8166666666575
 11
1119.58693333562
 21
1268.8166666666602
  0
LINE
  8
_0-0_0
  6
CONTINUOUS
 62
    7
 10
907.16176239665742
 20
1268.8166666666602
 11
715.0086811994754
 21
1268.8166666666602
  0
LINE
  8
_0-0_0
  6
CONTINUOUS
 62
    7
 10
1194.2586811994715
 20
1265.2666666666619
 11
1124.1799751846315
 21
1265.2666666666619
  0
LINE
  8
_0-0_0
  6
CONTINUOUS
 62
    7
 10
902.56872054764585
 20
1265.2666666666619
 11
715.0086811994754
 21
1265.2666666666619
  0
LINE
  8
_0-0_0
  6
CONTINUOUS
 62
    7
 10
1190.7086811994702
 20
1261.7166666666606
 11
1128.4806282281522
 21
1261.7166666666606
  0
LINE
  8
_0-0_0
  6
CONTINUOUS
 62
    7
 10
898.26806750412516
 20
1261.7166666666606
 11
715.0086811994754
 21
1261.7166666666606
  0
LINE
  8
_0-0_0
  6
CONTINUOUS
 62
    7
 10
1187.1586811994746
 20
1258.1666666666592
 11
1132.5205585155402
 21
1258.1666666666592
  0
LINE
  8
_0-0_0
  6
CONTINUOUS
 62
    7
 10
894.22813721673151
 20
1258.1666666666592
 11
715.0086811994754
 21
1258.1666666666592
  0
LINE
  8
_0-0_0
  6
CONTINUOUS
 62
    7
 10
1183.6086811994733
 20
1254.6166666666579
 11
1136.3254692333101
 21
1254.6166666666579
  0
LINE
  8
_0-0_0
  6
CONTINUOUS
 62
    7
 10
890.42322649896164
 20
1254.6166666666579
 11
715.0086811994754
 21
1254.6166666666636
  0
LINE
  8
_0-0_0
  6
CONTINUOUS
 62
    7
 10
1180.0586811994719
 20
1251.0666666666593
 11
1139.9165620824988
 21
1251.0666666666566
  0
LINE
  8
_0-0_0
  6
CONTINUOUS
 62
    7
 10
886.8321336497786
 20
1251.0666666666593
 11
715.0086811994754
 21
1251.0666666666623
  0
LINE
  8
_0-0_0
  6
CONTINUOUS
 62
    7
 10
1176.5086811994763
 20
1247.516666666661
 11
1143.3115662145042
 21
1247.516666666661
  0
LINE
  8
_0-0_0
  6
CONTINUOUS
 62
    7
 10
883.43712951776752
 20
1247.516666666661
 11
715.0086811994754
 21
1247.516666666661
  0
LINE
  8
_0-0_0
  6
CONTINUOUS
 62
    7
 10
1172.9586811994693
 20
1243.9666666666596
 11
1146.5254817157756
 21
1243.9666666666596
  0
LINE
  8
_0-0_0
  6
CONTINUOUS
 62
    7
 10
880.22321401650174
 20
1243.9666666666596
 11
715.0086811994754
 21
1243.9666666666596
  0
LINE
  8
_0-0_0
  6
CONTINUOUS
 62
    7
 10
1169.4086811994737
 20
1240.4166666666583
 11
1149.5711289543067
 21
1240.4166666666583
  0
LINE
  8
_0-0_0
  6
CONTINUOUS
 62
    7
 10
877.1775667779707
 20
1240.4166666666583
 11
715.0086811994754
 21
1240.4166666666583
  0
LINE
  8
_0-0_0
  6
CONTINUOUS
 62
    7
 10
1165.8586811994724
 20
1236.86666666666
 11
1152.4595624365986
 21
1236.86666666666
  0
LINE
  8
_0-0_0
  6
CONTINUOUS
 62
    7
 10
874.28913329567308
 20
1236.8666666666627
 11
715.0086811994754
 21
1236.8666666666627
  0
LINE
  8
_0-0_0
  6
CONTINUOUS
 62
    7
 10
1162.308681199471
 20
1233.3166666666614
 11
1155.2003879485028
 21
1233.3166666666614
  0
LINE
  8
_0-0_0
  6
CONTINUOUS
 62
    7
 10
871.54830778377459
 20
1233.3166666666614
 11
715.0086811994754
 21
1233.3166666666614
  0
LINE
  8
_0-0_0
  6
CONTINUOUS
 62
    7
 10
1158.7586811994754
 20
1229.7666666666601
 11
1157.8020092706538
 21
1229.7666666666601
  0
LINE
  8
_0-0_0
  6
CONTINUOUS
 62
    7
 10
868.9466864616179
 20
1229.7666666666601
 11
715.0086811994754
 21
1229.7666666666601
  0
LINE
  8
_0-0_0
  6
CONTINUOUS
 62
    7
 10
866.47687303382099
 20
1226.2166666666587
 11
715.0086811994754
 21
1226.2166666666617
  0
LINE
  8
_0-0_0
  6
CONTINUOUS
 62
    7
 10
864.13232347138091
 20
1222.6666666666574
 11
715.0086811994754
 21
1222.6666666666601
  0
LINE
  8
_0-0_0
  6
CONTINUOUS
 62
    7
 10
861.90722080954174
 20
1219.1166666666591
 11
715.0086811994754
 21
1219.1166666666618
  0
LINE
  8
_0-0_0
  6
CONTINUOUS
 62
    7
 10
859.79637316887647
 20
1215.5666666666605
 11
715.0086811994754
 21
1215.5666666666605
  0
LINE
  8
_0-0_0
  6
CONTINUOUS
 62
    7
 10
857.79512995627556
 20
1212.0166666666591
 11
715.0086811994754
 21
1212.0166666666591
  0
LINE
  8
_0-0_0
  6
CONTINUOUS
 62
    7
 10
855.89931245170305
 20
1208.4666666666635
 11
715.0086811994754
 21
1208.4666666666608
  0
LINE
  8
_0-0_0
  6
CONTINUOUS
 62
    7
 10
854.10515589194915
 20
1204.9166666666622
 11
715.0086811994754
 21
1204.9166666666622
  0
LINE
  8
_0-0_0
  6
CONTINUOUS
 62
    7
 10
852.40926082722694
 20
1201.3666666666609
 11
715.0086811994754
 21
1201.3666666666609
  0
LINE
  8
_0-0_0
  6
CONTINUOUS
 62
    7
 10
850.80855202095336
 20
1197.8166666666596
 11
715.0086811994754
 21
1197.8166666666596
  0
LINE
  8
_0-0_0
  6
CONTINUOUS
 62
    7
 10
849.30024353485578
 20
1194.2666666666582
 11
715.0086811994754
 21
1194.2666666666582
  0
LINE
  8
_0-0_0
  6
CONTINUOUS
 62
    7
 10
847.8818089242111
 20
1190.7166666666626
 11
715.0086811994754
 21
1190.7166666666626
  0
LINE
  8
_0-0_0
  6
CONTINUOUS
 62
    7
 10
846.55095568513161
 20
1187.1666666666613
 11
715.0086811994754
 21
1187.1666666666613
  0
LINE
  8
_0-0_0
  6
CONTINUOUS
 62
    7
 10
845.30560326408022
 20
1183.61666666666
 11
715.0086811994754
 21
1183.61666666666
  0
LINE
  8
_0-0_0
  6
CONTINUOUS
 62
    7
 10
844.1438640712704
 20
1180.0666666666586
 11
715.0086811994754
 21
1180.0666666666616
  0
LINE
  8
_0-0_0
  6
CONTINUOUS
 62
    7
 10
843.06402704330026
 20
1176.5166666666601
 11
715.0086811994754
 21
1176.5166666666601
  0
LINE
  8
_0-0_0
  6
CONTINUOUS
 62
    7
 10
842.06454338282128
 20
1172.966666666659
 11
715.0086811994754
 21
1172.9666666666617
  0
LINE
  8
_0-0_0
  6
CONTINUOUS
 62
    7
 10
841.1440141689468
 20
1169.4166666666604
 11
715.0086811994754
 21
1169.4166666666604
  0
LINE
  8
_0-0_0
  6
CONTINUOUS
 62
    7
 10
840.30117958527057
 20
1165.8666666666618
 11
715.0086811994754
 21
1165.8666666666618
  0
LINE
  8
_0-0_0
  6
CONTINUOUS
 62
    7
 10
839.53490955563552
 20
1162.3166666666634
 11
715.0086811994754
 21
1162.3166666666607
  0
LINE
  8
_0-0_0
  6
CONTINUOUS
 62
    7
 10
838.84419561317145
 20
1158.7666666666621
 11
715.0086811994754
 21
1158.7666666666621
  0
LINE
  8
_0-0_0
  6
CONTINUOUS
 62
    7
 10
838.22814385709421
 20
1155.2166666666608
 11
715.0086811994754
 21
1155.2166666666608
  0
LINE
  8
_0-0_0
  6
CONTINUOUS
 62
    7
 10
837.68596887620106
 20
1151.6666666666624
 11
715.0086811994754
 21
1151.6666666666595
  0
LINE
  8
_0-0_0
  6
CONTINUOUS
 62
    7
 10
837.21698853805151
 20
1148.1166666666609
 11
715.0086811994754
 21
1148.1166666666609
  0
LINE
  8
_0-0_0
  6
CONTINUOUS
 62
    7
 10
836.82061956005782
 20
1144.5666666666625
 11
715.0086811994754
 21
1144.5666666666625
  0
LINE
  8
_0-0_0
  6
CONTINUOUS
 62
    7
 10
836.49637379330102
 20
1141.0166666666582
 11
715.0086811994754
 21
1141.0166666666612
  0
LINE
  8
_0-0_0
  6
CONTINUOUS
 62
    7
 10
836.24385516246775
 20
1137.4666666666599
 11
715.0086811994754
 21
1137.4666666666599
  0
LINE
  8
_0-0_0
  6
CONTINUOUS
 62
    7
 10
836.06275721629117
 20
1133.9166666666586
 11
715.0086811994754
 21
1133.9166666666586
  0
LINE
  8
_0-0_0
  6
CONTINUOUS
 62
    7
 10
835.9528612527356
 20
1130.36666666666
 11
715.0086811994754
 21
1130.3666666666629
  0
LINE
  8
_0-0_0
  6
CONTINUOUS
 62
    7
 10
835.91403499183912
 20
1126.8166666666589
 11
715.0086811994754
 21
1126.8166666666616
  0
LINE
  8
_0-0_0
  6
CONTINUOUS
 62
    7
 10
835.94623177745575
 20
1123.2666666666603
 11
715.0086811994754
 21
1123.2666666666603
  0
LINE
  8
_0-0_0
  6
CONTINUOUS
 62
    7
 10
836.04949029644899
 20
1119.716666666659
 11
715.0086811994754
 21
1119.7166666666617
  0
LINE
  8
_0-0_0
  6
CONTINUOUS
 62
    7
 10
836.22393481145423
 20
1116.1666666666576
 11
715.0086811994754
 21
1116.1666666666606
  0
LINE
  8
_0-0_0
  6
CONTINUOUS
 62
    7
 10
836.46977591058658
 20
1112.6166666666591
 11
715.0086811994754
 21
1112.616666666662
  0
LINE
  8
_0-0_0
  6
CONTINUOUS
 62
    7
 10
836.78731178446242
 20
1109.0666666666607
 11
715.0086811994754
 21
1109.0666666666607
  0
LINE
  8
_0-0_0
  6
CONTINUOUS
 62
    7
 10
837.17693004895182
 20
1105.5166666666594
 11
715.0086811994754
 21
1105.5166666666594
  0
LINE
  8
_0-0_0
  6
CONTINUOUS
 62
    7
 10
837.63911013967345
 20
1101.9666666666581
 11
715.0086811994754
 21
1101.9666666666608
  0
LINE
  8
_0-0_0
  6
CONTINUOUS
 62
    7
 10
838.1744263133271
 20
1098.4166666666567
 11
715.0086811994754
 21
1098.4166666666624
  0
LINE
  8
_0-0_0
  6
CONTINUOUS
 62
    7
 10
838.78355130044611
 20
1094.8666666666611
 11
715.0086811994754
 21
1094.8666666666611
  0
LINE
  8
_0-0_0
  6
CONTINUOUS
 62
    7
 10
839.46726066502038
 20
1091.3166666666598
 11
715.0086811994754
 21
1091.3166666666598
  0
LINE
  8
_0-0_0
  6
CONTINUOUS
 62
    7
 10
840.2264379390715
 20
1087.7666666666585
 11
715.0086811994754
 21
1087.7666666666585
  0
LINE
  8
_0-0_0
  6
CONTINUOUS
 62
    7
 10
841.06208061437542
 20
1084.2166666666571
 11
715.0086811994754
 21
1084.2166666666628
  0
LINE
  8
_0-0_0
  6
CONTINUOUS
 62
    7
 10
841.97530709059265
 20
1080.6666666666588
 11
715.0086811994754
 21
1080.6666666666615
  0
LINE
  8
_0-0_0
  6
CONTINUOUS
 62
    7
 10
842.96736469904658
 20
1077.1166666666602
 11
715.0086811994754
 21
1077.1166666666602
  0
LINE
  8
_0-0_0
  6
CONTINUOUS
 62
    7
 10
844.03963894488925
 20
1073.5666666666589
 11
715.0086811994754
 21
1073.5666666666589
  0
LINE
  8
_0-0_0
  6
CONTINUOUS
 62
    7
 10
1354.008681199474
 20
1425.0166666666614
 11
715.0086811994754
 21
1425.0166666666614
  0
LINE
  8
_0-0_0
  6
CONTINUOUS
 62
    7
 10
1350.4586811994727
 20
1421.4666666666631
 11
715.0086811994754
 21
1421.4666666666631
  0
LINE
  8
_0-0_0
  6
CONTINUOUS
 62
    7
 10
1346.9086811994714
 20
1417.9166666666617
 11
715.0086811994754
 21
1417.9166666666617
  0
LINE
  8
_0-0_0
  6
CONTINUOUS
 62
    7
 10
1343.3586811994701
 20
1414.3666666666604
 11
715.0086811994754
 21
1414.3666666666604
  0
LINE
  8
_0-0_0
  6
CONTINUOUS
 62
    7
 10
1339.8086811994744
 20
1410.8166666666591
 11
715.0086811994754
 21
1410.8166666666591
  0
LINE
  8
_0-0_0
  6
CONTINUOUS
 62
    7
 10
1336.2586811994731
 20
1407.2666666666605
 11
715.0086811994754
 21
1407.2666666666605
  0
LINE
  8
_0-0_0
  6
CONTINUOUS
 62
    7
 10
1332.7086811994718
 20
1403.7166666666621
 11
715.0086811994754
 21
1403.7166666666621
  0
LINE
  8
_0-0_0
  6
CONTINUOUS
 62
    7
 10
1329.1586811994705
 20
1400.1666666666579
 11
715.0086811994754
 21
1400.1666666666608
  0
LINE
  8
_0-0_0
  6
CONTINUOUS
 62
    7
 10
1325.6086811994692
 20
1396.6166666666595
 11
715.0086811994754
 21
1396.6166666666622
  0
LINE
  8
_0-0_0
  6
CONTINUOUS
 62
    7
 10
1322.0586811994735
 20
1393.0666666666611
 11
715.0086811994754
 21
1393.0666666666611
  0
LINE
  8
_0-0_0
  6
CONTINUOUS
 62
    7
 10
1318.5086811994722
 20
1389.5166666666596
 11
715.0086811994754
 21
1389.5166666666596
  0
LINE
  8
_0-0_0
  6
CONTINUOUS
 62
    7
 10
1314.9586811994709
 20
1385.9666666666612
 11
715.0086811994754
 21
1385.9666666666612
  0
LINE
  8
_0-0_0
  6
CONTINUOUS
 62
    7
 10
1311.4086811994696
 20
1382.4166666666599
 11
715.0086811994754
 21
1382.4166666666599
  0
LINE
  8
_0-0_0
  6
CONTINUOUS
 62
    7
 10
1307.8586811994739
 20
1378.8666666666613
 11
715.0086811994754
 21
1378.8666666666613
  0
LINE
  8
_0-0_0
  6
CONTINUOUS
 62
    7
 10
1304.3086811994726
 20
1375.3166666666602
 11
715.0086811994754
 21
1375.3166666666602
  0
LINE
  8
_0-0_0
  6
CONTINUOUS
 62
    7
 10
1300.7586811994713
 20
1371.7666666666616
 11
715.0086811994754
 21
1371.7666666666616
  0
LINE
  8
_0-0_0
  6
CONTINUOUS
 62
    7
 10
1297.20868119947
 20
1368.2166666666603
 11
715.0086811994754
 21
1368.2166666666603
  0
LINE
  8
_0-0_0
  6
CONTINUOUS
 62
    7
 10
1293.6586811994744
 20
1364.666666666659
 11
715.0086811994754
 21
1364.666666666659
  0
LINE
  8
_0-0_0
  6
CONTINUOUS
 62
    7
 10
1290.108681199473
 20
1361.1166666666634
 11
715.0086811994754
 21
1361.1166666666634
  0
LINE
  8
_0-0_0
  6
CONTINUOUS
 62
    7
 10
1286.5586811994717
 20
1357.5666666666593
 11
715.0086811994754
 21
1357.5666666666621
  0
LINE
  8
_0-0_0
  6
CONTINUOUS
 62
    7
 10
1283.0086811994761
 20
1354.0166666666607
 11
715.0086811994754
 21
1354.0166666666607
  0
LINE
  8
_0-0_0
  6
CONTINUOUS
 62
    7
 10
1279.4586811994748
 20
1350.4666666666594
 11
715.0086811994754
 21
1350.4666666666594
  0
LINE
  8
_0-0_0
  6
CONTINUOUS
 62
    7
 10
1275.9086811994734
 20
1346.9166666666611
 11
715.0086811994754
 21
1346.9166666666611
  0
LINE
  8
_0-0_0
  6
CONTINUOUS
 62
    7
 10
1272.3586811994721
 20
1343.3666666666595
 11
715.0086811994754
 21
1343.3666666666625
  0
LINE
  8
_0-0_0
  6
CONTINUOUS
 62
    7
 10
1268.8086811994708
 20
1339.8166666666584
 11
715.0086811994754
 21
1339.8166666666611
  0
LINE
  8
_0-0_0
  6
CONTINUOUS
 62
    7
 10
1265.2586811994695
 20
1336.2666666666598
 11
715.0086811994754
 21
1336.2666666666598
  0
LINE
  8
_0-0_0
  6
CONTINUOUS
 62
    7
 10
1261.7086811994682
 20
1332.7166666666612
 11
715.0086811994754
 21
1332.7166666666612
  0
LINE
  8
_0-0_0
  6
CONTINUOUS
 62
    7
 10
1258.1586811994725
 20
1329.1666666666572
 11
715.0086811994754
 21
1329.1666666666601
  0
LINE
  8
_0-0_0
  6
CONTINUOUS
 62
    7
 10
1254.6086811994712
 20
1325.6166666666616
 11
715.0086811994754
 21
1325.6166666666616
  0
LINE
  8
_0-0_0
  6
CONTINUOUS
 62
    7
 10
1251.0586811994699
 20
1322.0666666666602
 11
715.0086811994754
 21
1322.0666666666602
  0
LINE
  8
_0-0_0
  6
CONTINUOUS
 62
    7
 10
1247.5086811994743
 20
1318.5166666666589
 11
715.0086811994754
 21
1318.5166666666589
  0
LINE
  8
_0-0_0
  6
CONTINUOUS
 62
    7
 10
1243.9586811994729
 20
1314.9666666666576
 11
715.0086811994754
 21
1314.9666666666633
  0
LINE
  8
_0-0_0
  6
CONTINUOUS
 62
    7
 10
1240.4086811994716
 20
1311.4166666666592
 11
715.0086811994754
 21
1311.416666666662
  0
LINE
  8
_0-0_0
  6
CONTINUOUS
 62
    7
 10
1236.8586811994703
 20
1307.8666666666606
 11
715.0086811994754
 21
1307.8666666666606
  0
LINE
  8
_0-0_0
  6
CONTINUOUS
 62
    7
 10
1233.3086811994747
 20
1304.3166666666593
 11
715.0086811994754
 21
1304.3166666666593
  0
LINE
  8
_0-0_0
  6
CONTINUOUS
 62
    7
 10
1229.7586811994734
 20
1300.766666666658
 11
1047.6661065278336
 21
1300.766666666658
  0
LINE
  8
_0-0_0
  6
CONTINUOUS
 62
    7
 10
979.08258920443814
 20
1300.766666666658
 11
715.0086811994754
 21
1300.766666666658
  0
LINE
  8
_0-0_0
  6
CONTINUOUS
 62
    7
 10
1226.208681199472
 20
1297.2166666666594
 11
1062.359482809768
 21
1297.2166666666624
  0
LINE
  8
_0-0_0
  6
CONTINUOUS
 62
    7
 10
964.38921292251507
 20
1297.2166666666624
 11
715.0086811994754
 21
1297.2166666666624
  0
LINE
  8
_0-0_0
  6
CONTINUOUS
 62
    7
 10
1222.6586811994707
 20
1293.6666666666583
 11
1073.3573219402786
 21
1293.6666666666583
  0
LINE
  8
_0-0_0
  6
CONTINUOUS
 62
    7
 10
953.39137379199315
 20
1293.6666666666583
 11
715.0086811994754
 21
1293.6666666666611
  0
LINE
  8
_0-0_0
  6
CONTINUOUS
 62
    7
 10
1219.1086811994751
 20
1290.1166666666597
 11
1082.4479746140696
 21
1290.1166666666597
  0
LINE
  8
_0-0_0
  6
CONTINUOUS
 62
    7
 10
944.30072111820778
 20
1290.1166666666597
 11
715.0086811994754
 21
1290.1166666666597
  0
LINE
  8
_0-0_0
  6
CONTINUOUS
 62
    7
 10
1215.5586811994738
 20
1286.5666666666611
 11
1090.3104879138766
 21
1286.5666666666611
  0
LINE
  8
_0-0_0
  6
CONTINUOUS
 62
    7
 10
936.43820781840077
 20
1286.5666666666611
 11
715.0086811994754
 21
1286.5666666666611
  0
LINE
  8
_0-0_0
  6
CONTINUOUS
 62
    7
 10
1212.0086811994724
 20
1283.0166666666601
 11
1097.2907847469969
 21
1283.0166666666601
  0
LINE
  8
_0-0_0
  6
CONTINUOUS
 62
    7
 10
929.45791098528048
 20
1283.0166666666601
 11
715.0086811994754
 21
1283.0166666666601
  0
LINE
  8
_0-0_0
  6
CONTINUOUS
 62
    7
 10
1208.4586811994711
 20
1279.4666666666585
 11
1103.5938696566689
 21
1279.4666666666615
  0
LINE
  8
_0-0_0
  6
CONTINUOUS
 62
    7
 10
923.15482607560853
 20
1279.4666666666615
 11
715.0086811994754
 21
1279.4666666666615
  0
LINE
  8
_0-0_0
  6
CONTINUOUS
 62
    7
 10
1204.9086811994698
 20
1275.9166666666601
 11
1109.3532562025302
 21
1275.9166666666601
  0
LINE
  8
_0-0_0
  6
CONTINUOUS
 62
    7
 10
917.39543952974714
 20
1275.9166666666601
 11
715.0086811994754
 21
1275.9166666666601
  0
LINE
  8
_0-0_0
  6
CONTINUOUS
 62
    7
 10
1201.3586811994742
 20
1272.3666666666618
 11
1114.6617339454451
 21
1272.3666666666588
  0
LINE
  8
_0-0_0
  6
CONTINUOUS
 62
    7
 10
912.08696178682658
 20
1272.3666666666588
 11
715.0086811994754
 21
1272.3666666666618
  0
LINE
  8
_0-0_0
  6
CONTINUOUS
 62
    7
 10
1197.8086811994729
 20
1268.8166666666575
 11
1119.58693333562
 21
1268.8166666666602
  0
LINE
  8
_0-0_0
  6
CONTINUOUS
 62
    7
 10
907.16176239665742
 20
1268.8166666666602
 11
715.0086811994754
 21
1268.8166666666602
  0
LINE
  8
_0-0_0
  6
CONTINUOUS
 62
    7
 10
1194.2586811994715
 20
1265.2666666666619
 11
1124.1799751846315
 21
1265.2666666666619
  0
LINE
  8
_0-0_0
  6
CONTINUOUS
 62
    7
 10
902.56872054764585
 20
1265.2666666666619
 11
715.0086811994754
 21
1265.2666666666619
  0
LINE
  8
_0-0_0
  6
CONTINUOUS
 62
    7
 10
1190.7086811994702
 20
1261.7166666666606
 11
1128.4806282281522
 21
1261.7166666666606
  0
LINE
  8
_0-0_0
  6
CONTINUOUS
 62
    7
 10
898.26806750412516
 20
1261.7166666666606
 11
715.0086811994754
 21
1261.7166666666606
  0
LINE
  8
_0-0_0
  6
CONTINUOUS
 62
    7
 10
1187.1586811994746
 20
1258.1666666666592
 11
1132.5205585155402
 21
1258.1666666666592
  0
LINE
  8
_0-0_0
  6
CONTINUOUS
 62
    7
 10
894.22813721673151
 20
1258.1666666666592
 11
715.0086811994754
 21
1258.1666666666592
  0
LINE
  8
_0-0_0
  6
CONTINUOUS
 62
    7
 10
1183.6086811994733
 20
1254.6166666666579
 11
1136.3254692333101
 21
1254.6166666666579
  0
LINE
  8
_0-0_0
  6
CONTINUOUS
 62
    7
 10
890.42322649896164
 20
1254.6166666666579
 11
715.0086811994754
 21
1254.6166666666636
  0
LINE
  8
_0-0_0
  6
CONTINUOUS
 62
    7
 10
1180.0586811994719
 20
1251.0666666666593
 11
1139.9165620824988
 21
1251.0666666666566
  0
LINE
  8
_0-0_0
  6
CONTINUOUS
 62
    7
 10
886.8321336497786
 20
1251.0666666666593
 11
715.0086811994754
 21
1251.0666666666623
  0
LINE
  8
_0-0_0
  6
CONTINUOUS
 62
    7
 10
1176.5086811994763
 20
1247.516666666661
 11
1143.3115662145042
 21
1247.516666666661
  0
LINE
  8
_0-0_0
  6
CONTINUOUS
 62
    7
 10
883.43712951776752
 20
1247.516666666661
 11
715.0086811994754
 21
1247.516666666661
  0
LINE
  8
_0-0_0
  6
CONTINUOUS
 62
    7
 10
1172.9586811994693
 20
1243.9666666666596
 11
1146.5254817157756
 21
1243.9666666666596
  0
LINE
  8
_0-0_0
  6
CONTINUOUS
 62
    7
 10
880.22321401650174
 20
1243.9666666666596
 11
715.0086811994754
 21
1243.9666666666596
  0
LINE
  8
_0-0_0
  6
CONTINUOUS
 62
    7
 10
1169.4086811994737
 20
1240.4166666666583
 11
1149.5711289543067
 21
1240.4166666666583
  0
LINE
  8
_0-0_0
  6
CONTINUOUS
 62
    7
 10
877.1775667779707
 20
1240.4166666666583
 11
715.0086811994754
 21
1240.4166666666583
  0
LINE
  8
_0-0_0
  6
CONTINUOUS
 62
    7
 10
1165.8586811994724
 20
1236.86666666666
 11
1152.4595624365986
 21
1236.86666666666
  0
LINE
  8
_0-0_0
  6
CONTINUOUS
 62
    7
 10
874.28913329567308
 20
1236.8666666666627
 11
715.0086811994754
 21
1236.8666666666627
  0
LINE
  8
_0-0_0
  6
CONTINUOUS
 62
    7
 10
1162.308681199471
 20
1233.3166666666614
 11
1155.2003879485028
 21
1233.3166666666614
  0
LINE
  8
_0-0_0
  6
CONTINUOUS
 62
    7
 10
871.54830778377459
 20
1233.3166666666614
 11
715.0086811994754
 21
1233.3166666666614
  0
LINE
  8
_0-0_0
  6
CONTINUOUS
 62
    7
 10
1158.7586811994754
 20
1229.7666666666601
 11
1157.8020092706538
 21
1229.7666666666601
  0
LINE
  8
_0-0_0
  6
CONTINUOUS
 62
    7
 10
868.9466864616179
 20
1229.7666666666601
 11
715.0086811994754
 21
1229.7666666666601
  0
LINE
  8
_0-0_0
  6
CONTINUOUS
 62
    7
 10
866.47687303382099
 20
1226.2166666666587
 11
715.0086811994754
 21
1226.2166666666617
  0
LINE
  8
_0-0_0
  6
CONTINUOUS
 62
    7
 10
864.13232347138091
 20
1222.6666666666574
 11
715.0086811994754
 21
1222.6666666666601
  0
LINE
  8
_0-0_0
  6
CONTINUOUS
 62
    7
 10
861.90722080954174
 20
1219.1166666666591
 11
715.0086811994754
 21
1219.1166666666618
  0
LINE
  8
_0-0_0
  6
CONTINUOUS
 62
    7
 10
859.79637316887647
 20
1215.5666666666605
 11
715.0086811994754
 21
1215.5666666666605
  0
LINE
  8
_0-0_0
  6
CONTINUOUS
 62
    7
 10
857.79512995627556
 20
1212.0166666666591
 11
715.0086811994754
 21
1212.0166666666591
  0
LINE
  8
_0-0_0
  6
CONTINUOUS
 62
    7
 10
855.89931245170305
 20
1208.4666666666635
 11
715.0086811994754
 21
1208.4666666666608
  0
LINE
  8
_0-0_0
  6
CONTINUOUS
 62
    7
 10
854.10515589194915
 20
1204.9166666666622
 11
715.0086811994754
 21
1204.9166666666622
  0
LINE
  8
_0-0_0
  6
CONTINUOUS
 62
    7
 10
852.40926082722694
 20
1201.3666666666609
 11
715.0086811994754
 21
1201.3666666666609
  0
LINE
  8
_0-0_0
  6
CONTINUOUS
 62
    7
 10
850.80855202095336
 20
1197.8166666666596
 11
715.0086811994754
 21
1197.8166666666596
  0
LINE
  8
_0-0_0
  6
CONTINUOUS
 62
    7
 10
849.30024353485578
 20
1194.2666666666582
 11
715.0086811994754
 21
1194.2666666666582
  0
LINE
  8
_0-0_0
  6
CONTINUOUS
 62
    7
 10
847.8818089242111
 20
1190.7166666666626
 11
715.0086811994754
 21
1190.7166666666626
  0
LINE
  8
_0-0_0
  6
CONTINUOUS
 62
    7
 10
846.55095568513161
 20
1187.1666666666613
 11
715.0086811994754
 21
1187.1666666666613
  0
LINE
  8
_0-0_0
  6
CONTINUOUS
 62
    7
 10
845.30560326408022
 20
1183.61666666666
 11
715.0086811994754
 21
1183.61666666666
  0
LINE
  8
_0-0_0
  6
CONTINUOUS
 62
    7
 10
844.1438640712704
 20
1180.0666666666586
 11
715.0086811994754
 21
1180.0666666666616
  0
LINE
  8
_0-0_0
  6
CONTINUOUS
 62
    7
 10
843.06402704330026
 20
1176.5166666666601
 11
715.0086811994754
 21
1176.5166666666601
  0
LINE
  8
_0-0_0
  6
CONTINUOUS
 62
    7
 10
842.06454338282128
 20
1172.966666666659
 11
715.0086811994754
 21
1172.9666666666617
  0
LINE
  8
_0-0_0
  6
CONTINUOUS
 62
    7
 10
841.1440141689468
 20
1169.4166666666604
 11
715.0086811994754
 21
1169.4166666666604
  0
LINE
  8
_0-0_0
  6
CONTINUOUS
 62
    7
 10
840.30117958527057
 20
1165.8666666666618
 11
715.0086811994754
 21
1165.8666666666618
  0
LINE
  8
_0-0_0
  6
CONTINUOUS
 62
    7
 10
839.53490955563552
 20
1162.3166666666634
 11
715.0086811994754
 21
1162.3166666666607
  0
LINE
  8
_0-0_0
  6
CONTINUOUS
 62
    7
 10
838.84419561317145
 20
1158.7666666666621
 11
715.0086811994754
 21
1158.7666666666621
  0
LINE
  8
_0-0_0
  6
CONTINUOUS
 62
    7
 10
838.22814385709421
 20
1155.2166666666608
 11
715.0086811994754
 21
1155.2166666666608
  0
LINE
  8
_0-0_0
  6
CONTINUOUS
 62
    7
 10
837.68596887620106
 20
1151.6666666666624
 11
715.0086811994754
 21
1151.6666666666595
  0
LINE
  8
_0-0_0
  6
CONTINUOUS
 62
    7
 10
837.21698853805151
 20
1148.1166666666609
 11
715.0086811994754
 21
1148.1166666666609
  0
LINE
  8
_0-0_0
  6
CONTINUOUS
 62
    7
 10
836.82061956005782
 20
1144.5666666666625
 11
715.0086811994754
 21
1144.5666666666625
  0
LINE
  8
_0-0_0
  6
CONTINUOUS
 62
    7
 10
836.49637379330102
 20
1141.0166666666582
 11
715.0086811994754
 21
1141.0166666666612
  0
LINE
  8
_0-0_0
  6
CONTINUOUS
 62
    7
 10
836.24385516246775
 20
1137.4666666666599
 11
715.0086811994754
 21
1137.4666666666599
  0
LINE
  8
_0-0_0
  6
CONTINUOUS
 62
    7
 10
836.06275721629117
 20
1133.9166666666586
 11
715.0086811994754
 21
1133.9166666666586
  0
LINE
  8
_0-0_0
  6
CONTINUOUS
 62
    7
 10
835.9528612527356
 20
1130.36666666666
 11
715.0086811994754
 21
1130.3666666666629
  0
LINE
  8
_0-0_0
  6
CONTINUOUS
 62
    7
 10
835.91403499183912
 20
1126.8166666666589
 11
715.0086811994754
 21
1126.8166666666616
  0
LINE
  8
_0-0_0
  6
CONTINUOUS
 62
    7
 10
835.94623177745575
 20
1123.2666666666603
 11
715.0086811994754
 21
1123.2666666666603
  0
LINE
  8
_0-0_0
  6
CONTINUOUS
 62
    7
 10
836.04949029644899
 20
1119.716666666659
 11
715.0086811994754
 21
1119.7166666666617
  0
LINE
  8
_0-0_0
  6
CONTINUOUS
 62
    7
 10
836.22393481145423
 20
1116.1666666666576
 11
715.0086811994754
 21
1116.1666666666606
  0
LINE
  8
_0-0_0
  6
CONTINUOUS
 62
    7
 10
836.46977591058658
 20
1112.6166666666591
 11
715.0086811994754
 21
1112.616666666662
  0
LINE
  8
_0-0_0
  6
CONTINUOUS
 62
    7
 10
836.78731178446242
 20
1109.0666666666607
 11
715.0086811994754
 21
1109.0666666666607
  0
LINE
  8
_0-0_0
  6
CONTINUOUS
 62
    7
 10
837.17693004895182
 20
1105.5166666666594
 11
715.0086811994754
 21
1105.5166666666594
  0
LINE
  8
_0-0_0
  6
CONTINUOUS
 62
    7
 10
837.63911013967345
 20
1101.9666666666581
 11
715.0086811994754
 21
1101.9666666666608
  0
LINE
  8
_0-0_0
  6
CONTINUOUS
 62
    7
 10
838.1744263133271
 20
1098.4166666666567
 11
715.0086811994754
 21
1098.4166666666624
  0
LINE
  8
_0-0_0
  6
CONTINUOUS
 62
    7
 10
838.78355130044611
 20
1094.8666666666611
 11
715.0086811994754
 21
1094.8666666666611
  0
LINE
  8
_0-0_0
  6
CONTINUOUS
 62
    7
 10
839.46726066502038
 20
1091.3166666666598
 11
715.0086811994754
 21
1091.3166666666598
  0
LINE
  8
_0-0_0
  6
CONTINUOUS
 62
    7
 10
840.2264379390715
 20
1087.7666666666585
 11
715.0086811994754
 21
1087.7666666666585
  0
LINE
  8
_0-0_0
  6
CONTINUOUS
 62
    7
 10
841.06208061437542
 20
1084.2166666666571
 11
715.0086811994754
 21
1084.2166666666628
  0
LINE
  8
_0-0_0
  6
CONTINUOUS
 62
    7
 10
841.97530709059265
 20
1080.6666666666588
 11
715.0086811994754
 21
1080.6666666666615
  0
LINE
  8
_0-0_0
  6
CONTINUOUS
 62
    7
 10
842.96736469904658
 20
1077.1166666666602
 11
715.0086811994754
 21
1077.1166666666602
  0
LINE
  8
_0-0_0
  6
CONTINUOUS
 62
    7
 10
844.03963894488925
 20
1073.5666666666589
 11
715.0086811994754
 21
1073.5666666666589
  0
LINE
  8
_0-0_0
  6
CONTINUOUS
 62
    7
 10
1354.008681199474
 20
1425.0166666666614
 11
715.0086811994754
 21
1425.0166666666614
  0
LINE
  8
_0-0_0
  6
CONTINUOUS
 62
    7
 10
1350.4586811994727
 20
1421.4666666666631
 11
715.0086811994754
 21
1421.4666666666631
  0
LINE
  8
_0-0_0
  6
CONTINUOUS
 62
    7
 10
1346.9086811994714
 20
1417.9166666666617
 11
715.0086811994754
 21
1417.9166666666617
  0
LINE
  8
_0-0_0
  6
CONTINUOUS
 62
    7
 10
1343.3586811994701
 20
1414.3666666666604
 11
715.0086811994754
 21
1414.3666666666604
  0
LINE
  8
_0-0_0
  6
CONTINUOUS
 62
    7
 10
1339.8086811994744
 20
1410.8166666666591
 11
715.0086811994754
 21
1410.8166666666591
  0
LINE
  8
_0-0_0
  6
CONTINUOUS
 62
    7
 10
1336.2586811994731
 20
1407.2666666666605
 11
715.0086811994754
 21
1407.2666666666605
  0
LINE
  8
_0-0_0
  6
CONTINUOUS
 62
    7
 10
1332.7086811994718
 20
1403.7166666666621
 11
715.0086811994754
 21
1403.7166666666621
  0
LINE
  8
_0-0_0
  6
CONTINUOUS
 62
    7
 10
1329.1586811994705
 20
1400.1666666666579
 11
715.0086811994754
 21
1400.1666666666608
  0
LINE
  8
_0-0_0
  6
CONTINUOUS
 62
    7
 10
1325.6086811994692
 20
1396.6166666666595
 11
715.0086811994754
 21
1396.6166666666622
  0
LINE
  8
_0-0_0
  6
CONTINUOUS
 62
    7
 10
1322.0586811994735
 20
1393.0666666666611
 11
715.0086811994754
 21
1393.0666666666611
  0
LINE
  8
_0-0_0
  6
CONTINUOUS
 62
    7
 10
1318.5086811994722
 20
1389.5166666666596
 11
715.0086811994754
 21
1389.5166666666596
  0
LINE
  8
_0-0_0
  6
CONTINUOUS
 62
    7
 10
1314.9586811994709
 20
1385.9666666666612
 11
715.0086811994754
 21
1385.9666666666612
  0
LINE
  8
_0-0_0
  6
CONTINUOUS
 62
    7
 10
1311.4086811994696
 20
1382.4166666666599
 11
715.0086811994754
 21
1382.4166666666599
  0
LINE
  8
_0-0_0
  6
CONTINUOUS
 62
    7
 10
1307.8586811994739
 20
1378.8666666666613
 11
715.0086811994754
 21
1378.8666666666613
  0
LINE
  8
_0-0_0
  6
CONTINUOUS
 62
    7
 10
1304.3086811994726
 20
1375.3166666666602
 11
715.0086811994754
 21
1375.3166666666602
  0
LINE
  8
_0-0_0
  6
CONTINUOUS
 62
    7
 10
1300.7586811994713
 20
1371.7666666666616
 11
715.0086811994754
 21
1371.7666666666616
  0
LINE
  8
_0-0_0
  6
CONTINUOUS
 62
    7
 10
1297.20868119947
 20
1368.2166666666603
 11
715.0086811994754
 21
1368.2166666666603
  0
LINE
  8
_0-0_0
  6
CONTINUOUS
 62
    7
 10
1293.6586811994744
 20
1364.666666666659
 11
715.0086811994754
 21
1364.666666666659
  0
LINE
  8
_0-0_0
  6
CONTINUOUS
 62
    7
 10
1290.108681199473
 20
1361.1166666666634
 11
715.0086811994754
 21
1361.1166666666634
  0
LINE
  8
_0-0_0
  6
CONTINUOUS
 62
    7
 10
1286.5586811994717
 20
1357.5666666666593
 11
715.0086811994754
 21
1357.5666666666621
  0
LINE
  8
_0-0_0
  6
CONTINUOUS
 62
    7
 10
1283.0086811994761
 20
1354.0166666666607
 11
715.0086811994754
 21
1354.0166666666607
  0
LINE
  8
_0-0_0
  6
CONTINUOUS
 62
    7
 10
1279.4586811994748
 20
1350.4666666666594
 11
715.0086811994754
 21
1350.4666666666594
  0
LINE
  8
_0-0_0
  6
CONTINUOUS
 62
    7
 10
1275.9086811994734
 20
1346.9166666666611
 11
715.0086811994754
 21
1346.9166666666611
  0
LINE
  8
_0-0_0
  6
CONTINUOUS
 62
    7
 10
1272.3586811994721
 20
1343.3666666666595
 11
715.0086811994754
 21
1343.3666666666625
  0
LINE
  8
_0-0_0
  6
CONTINUOUS
 62
    7
 10
1268.8086811994708
 20
1339.8166666666584
 11
715.0086811994754
 21
1339.8166666666611
  0
LINE
  8
_0-0_0
  6
CONTINUOUS
 62
    7
 10
1265.2586811994695
 20
1336.2666666666598
 11
715.0086811994754
 21
1336.2666666666598
  0
LINE
  8
_0-0_0
  6
CONTINUOUS
 62
    7
 10
1261.7086811994682
 20
1332.7166666666612
 11
715.0086811994754
 21
1332.7166666666612
  0
LINE
  8
_0-0_0
  6
CONTINUOUS
 62
    7
 10
1258.1586811994725
 20
1329.1666666666572
 11
715.0086811994754
 21
1329.1666666666601
  0
LINE
  8
_0-0_0
  6
CONTINUOUS
 62
    7
 10
1254.6086811994712
 20
1325.6166666666616
 11
715.0086811994754
 21
1325.6166666666616
  0
LINE
  8
_0-0_0
  6
CONTINUOUS
 62
    7
 10
1251.0586811994699
 20
1322.0666666666602
 11
715.0086811994754
 21
1322.0666666666602
  0
LINE
  8
_0-0_0
  6
CONTINUOUS
 62
    7
 10
1247.5086811994743
 20
1318.5166666666589
 11
715.0086811994754
 21
1318.5166666666589
  0
LINE
  8
_0-0_0
  6
CONTINUOUS
 62
    7
 10
1243.9586811994729
 20
1314.9666666666576
 11
715.0086811994754
 21
1314.9666666666633
  0
LINE
  8
_0-0_0
  6
CONTINUOUS
 62
    7
 10
1240.4086811994716
 20
1311.4166666666592
 11
715.0086811994754
 21
1311.416666666662
  0
LINE
  8
_0-0_0
  6
CONTINUOUS
 62
    7
 10
1236.8586811994703
 20
1307.8666666666606
 11
715.0086811994754
 21
1307.8666666666606
  0
LINE
  8
_0-0_0
  6
CONTINUOUS
 62
    7
 10
1233.3086811994747
 20
1304.3166666666593
 11
715.0086811994754
 21
1304.3166666666593
  0
LINE
  8
_0-0_0
  6
CONTINUOUS
 62
    7
 10
1229.7586811994734
 20
1300.766666666658
 11
1047.6661065278336
 21
1300.766666666658
  0
LINE
  8
_0-0_0
  6
CONTINUOUS
 62
    7
 10
979.08258920443814
 20
1300.766666666658
 11
715.0086811994754
 21
1300.766666666658
  0
LINE
  8
_0-0_0
  6
CONTINUOUS
 62
    7
 10
1226.208681199472
 20
1297.2166666666594
 11
1062.359482809768
 21
1297.2166666666624
  0
LINE
  8
_0-0_0
  6
CONTINUOUS
 62
    7
 10
964.38921292251507
 20
1297.2166666666624
 11
715.0086811994754
 21
1297.2166666666624
  0
LINE
  8
_0-0_0
  6
CONTINUOUS
 62
    7
 10
1222.6586811994707
 20
1293.6666666666583
 11
1073.3573219402786
 21
1293.6666666666583
  0
LINE
  8
_0-0_0
  6
CONTINUOUS
 62
    7
 10
953.39137379199315
 20
1293.6666666666583
 11
715.0086811994754
 21
1293.6666666666611
  0
LINE
  8
_0-0_0
  6
CONTINUOUS
 62
    7
 10
1219.1086811994751
 20
1290.1166666666597
 11
1082.4479746140696
 21
1290.1166666666597
  0
LINE
  8
_0-0_0
  6
CONTINUOUS
 62
    7
 10
944.30072111820778
 20
1290.1166666666597
 11
715.0086811994754
 21
1290.1166666666597
  0
LINE
  8
_0-0_0
  6
CONTINUOUS
 62
    7
 10
1215.5586811994738
 20
1286.5666666666611
 11
1090.3104879138766
 21
1286.5666666666611
  0
LINE
  8
_0-0_0
  6
CONTINUOUS
 62
    7
 10
936.43820781840077
 20
1286.5666666666611
 11
715.0086811994754
 21
1286.5666666666611
  0
LINE
  8
_0-0_0
  6
CONTINUOUS
 62
    7
 10
1212.0086811994724
 20
1283.0166666666601
 11
1097.2907847469969
 21
1283.0166666666601
  0
LINE
  8
_0-0_0
  6
CONTINUOUS
 62
    7
 10
929.45791098528048
 20
1283.0166666666601
 11
715.0086811994754
 21
1283.0166666666601
  0
LINE
  8
_0-0_0
  6
CONTINUOUS
 62
    7
 10
1208.4586811994711
 20
1279.4666666666585
 11
1103.5938696566689
 21
1279.4666666666615
  0
LINE
  8
_0-0_0
  6
CONTINUOUS
 62
    7
 10
923.15482607560853
 20
1279.4666666666615
 11
715.0086811994754
 21
1279.4666666666615
  0
LINE
  8
_0-0_0
  6
CONTINUOUS
 62
    7
 10
1204.9086811994698
 20
1275.9166666666601
 11
1109.3532562025302
 21
1275.9166666666601
  0
LINE
  8
_0-0_0
  6
CONTINUOUS
 62
    7
 10
917.39543952974714
 20
1275.9166666666601
 11
715.0086811994754
 21
1275.9166666666601
  0
LINE
  8
_0-0_0
  6
CONTINUOUS
 62
    7
 10
1201.3586811994742
 20
1272.3666666666618
 11
1114.6617339454451
 21
1272.3666666666588
  0
LINE
  8
_0-0_0
  6
CONTINUOUS
 62
    7
 10
912.08696178682658
 20
1272.3666666666588
 11
715.0086811994754
 21
1272.3666666666618
  0
LINE
  8
_0-0_0
  6
CONTINUOUS
 62
    7
 10
1197.8086811994729
 20
1268.8166666666575
 11
1119.58693333562
 21
1268.8166666666602
  0
LINE
  8
_0-0_0
  6
CONTINUOUS
 62
    7
 10
907.16176239665742
 20
1268.8166666666602
 11
715.0086811994754
 21
1268.8166666666602
  0
LINE
  8
_0-0_0
  6
CONTINUOUS
 62
    7
 10
1194.2586811994715
 20
1265.2666666666619
 11
1124.1799751846315
 21
1265.2666666666619
  0
LINE
  8
_0-0_0
  6
CONTINUOUS
 62
    7
 10
902.56872054764585
 20
1265.2666666666619
 11
715.0086811994754
 21
1265.2666666666619
  0
LINE
  8
_0-0_0
  6
CONTINUOUS
 62
    7
 10
1190.7086811994702
 20
1261.7166666666606
 11
1128.4806282281522
 21
1261.7166666666606
  0
LINE
  8
_0-0_0
  6
CONTINUOUS
 62
    7
 10
898.26806750412516
 20
1261.7166666666606
 11
715.0086811994754
 21
1261.7166666666606
  0
LINE
  8
_0-0_0
  6
CONTINUOUS
 62
    7
 10
1187.1586811994746
 20
1258.1666666666592
 11
1132.5205585155402
 21
1258.1666666666592
  0
LINE
  8
_0-0_0
  6
CONTINUOUS
 62
    7
 10
894.22813721673151
 20
1258.1666666666592
 11
715.0086811994754
 21
1258.1666666666592
  0
LINE
  8
_0-0_0
  6
CONTINUOUS
 62
    7
 10
1183.6086811994733
 20
1254.6166666666579
 11
1136.3254692333101
 21
1254.6166666666579
  0
LINE
  8
_0-0_0
  6
CONTINUOUS
 62
    7
 10
890.42322649896164
 20
1254.6166666666579
 11
715.0086811994754
 21
1254.6166666666636
  0
LINE
  8
_0-0_0
  6
CONTINUOUS
 62
    7
 10
1180.0586811994719
 20
1251.0666666666593
 11
1139.9165620824988
 21
1251.0666666666566
  0
LINE
  8
_0-0_0
  6
CONTINUOUS
 62
    7
 10
886.8321336497786
 20
1251.0666666666593
 11
715.0086811994754
 21
1251.0666666666623
  0
LINE
  8
_0-0_0
  6
CONTINUOUS
 62
    7
 10
1176.5086811994763
 20
1247.516666666661
 11
1143.3115662145042
 21
1247.516666666661
  0
LINE
  8
_0-0_0
  6
CONTINUOUS
 62
    7
 10
883.43712951776752
 20
1247.516666666661
 11
715.0086811994754
 21
1247.516666666661
  0
LINE
  8
_0-0_0
  6
CONTINUOUS
 62
    7
 10
1172.9586811994693
 20
1243.9666666666596
 11
1146.5254817157756
 21
1243.9666666666596
  0
LINE
  8
_0-0_0
  6
CONTINUOUS
 62
    7
 10
880.22321401650174
 20
1243.9666666666596
 11
715.0086811994754
 21
1243.9666666666596
  0
LINE
  8
_0-0_0
  6
CONTINUOUS
 62
    7
 10
1169.4086811994737
 20
1240.4166666666583
 11
1149.5711289543067
 21
1240.4166666666583
  0
LINE
  8
_0-0_0
  6
CONTINUOUS
 62
    7
 10
877.1775667779707
 20
1240.4166666666583
 11
715.0086811994754
 21
1240.4166666666583
  0
LINE
  8
_0-0_0
  6
CONTINUOUS
 62
    7
 10
1165.8586811994724
 20
1236.86666666666
 11
1152.4595624365986
 21
1236.86666666666
  0
LINE
  8
_0-0_0
  6
CONTINUOUS
 62
    7
 10
874.28913329567308
 20
1236.8666666666627
 11
715.0086811994754
 21
1236.8666666666627
  0
LINE
  8
_0-0_0
  6
CONTINUOUS
 62
    7
 10
1162.308681199471
 20
1233.3166666666614
 11
1155.2003879485028
 21
1233.3166666666614
  0
LINE
  8
_0-0_0
  6
CONTINUOUS
 62
    7
 10
871.54830778377459
 20
1233.3166666666614
 11
715.0086811994754
 21
1233.3166666666614
  0
LINE
  8
_0-0_0
  6
CONTINUOUS
 62
    7
 10
1158.7586811994754
 20
1229.7666666666601
 11
1157.8020092706538
 21
1229.7666666666601
  0
LINE
  8
_0-0_0
  6
CONTINUOUS
 62
    7
 10
868.9466864616179
 20
1229.7666666666601
 11
715.0086811994754
 21
1229.7666666666601
  0
LINE
  8
_0-0_0
  6
CONTINUOUS
 62
    7
 10
866.47687303382099
 20
1226.2166666666587
 11
715.0086811994754
 21
1226.2166666666617
  0
LINE
  8
_0-0_0
  6
CONTINUOUS
 62
    7
 10
864.13232347138091
 20
1222.6666666666574
 11
715.0086811994754
 21
1222.6666666666601
  0
LINE
  8
_0-0_0
  6
CONTINUOUS
 62
    7
 10
861.90722080954174
 20
1219.1166666666591
 11
715.0086811994754
 21
1219.1166666666618
  0
LINE
  8
_0-0_0
  6
CONTINUOUS
 62
    7
 10
859.79637316887647
 20
1215.5666666666605
 11
715.0086811994754
 21
1215.5666666666605
  0
LINE
  8
_0-0_0
  6
CONTINUOUS
 62
    7
 10
857.79512995627556
 20
1212.0166666666591
 11
715.0086811994754
 21
1212.0166666666591
  0
LINE
  8
_0-0_0
  6
CONTINUOUS
 62
    7
 10
855.89931245170305
 20
1208.4666666666635
 11
715.0086811994754
 21
1208.4666666666608
  0
LINE
  8
_0-0_0
  6
CONTINUOUS
 62
    7
 10
854.10515589194915
 20
1204.9166666666622
 11
715.0086811994754
 21
1204.9166666666622
  0
LINE
  8
_0-0_0
  6
CONTINUOUS
 62
    7
 10
852.40926082722694
 20
1201.3666666666609
 11
715.0086811994754
 21
1201.3666666666609
  0
LINE
  8
_0-0_0
  6
CONTINUOUS
 62
    7
 10
850.80855202095336
 20
1197.8166666666596
 11
715.0086811994754
 21
1197.8166666666596
  0
LINE
  8
_0-0_0
  6
CONTINUOUS
 62
    7
 10
849.30024353485578
 20
1194.2666666666582
 11
715.0086811994754
 21
1194.2666666666582
  0
LINE
  8
_0-0_0
  6
CONTINUOUS
 62
    7
 10
847.8818089242111
 20
1190.7166666666626
 11
715.0086811994754
 21
1190.7166666666626
  0
LINE
  8
_0-0_0
  6
CONTINUOUS
 62
    7
 10
846.55095568513161
 20
1187.1666666666613
 11
715.0086811994754
 21
1187.1666666666613
  0
LINE
  8
_0-0_0
  6
CONTINUOUS
 62
    7
 10
845.30560326408022
 20
1183.61666666666
 11
715.0086811994754
 21
1183.61666666666
  0
LINE
  8
_0-0_0
  6
CONTINUOUS
 62
    7
 10
844.1438640712704
 20
1180.0666666666586
 11
715.0086811994754
 21
1180.0666666666616
  0
LINE
  8
_0-0_0
  6
CONTINUOUS
 62
    7
 10
843.06402704330026
 20
1176.5166666666601
 11
715.0086811994754
 21
1176.5166666666601
  0
LINE
  8
_0-0_0
  6
CONTINUOUS
 62
    7
 10
842.06454338282128
 20
1172.966666666659
 11
715.0086811994754
 21
1172.9666666666617
  0
LINE
  8
_0-0_0
  6
CONTINUOUS
 62
    7
 10
841.1440141689468
 20
1169.4166666666604
 11
715.0086811994754
 21
1169.4166666666604
  0
LINE
  8
_0-0_0
  6
CONTINUOUS
 62
    7
 10
840.30117958527057
 20
1165.8666666666618
 11
715.0086811994754
 21
1165.8666666666618
  0
LINE
  8
_0-0_0
  6
CONTINUOUS
 62
    7
 10
839.53490955563552
 20
1162.3166666666634
 11
715.0086811994754
 21
1162.3166666666607
  0
LINE
  8
_0-0_0
  6
CONTINUOUS
 62
    7
 10
838.84419561317145
 20
1158.7666666666621
 11
715.0086811994754
 21
1158.7666666666621
  0
LINE
  8
_0-0_0
  6
CONTINUOUS
 62
    7
 10
838.22814385709421
 20
1155.2166666666608
 11
715.0086811994754
 21
1155.2166666666608
  0
LINE
  8
_0-0_0
  6
CONTINUOUS
 62
    7
 10
837.68596887620106
 20
1151.6666666666624
 11
715.0086811994754
 21
1151.6666666666595
  0
LINE
  8
_0-0_0
  6
CONTINUOUS
 62
    7
 10
837.21698853805151
 20
1148.1166666666609
 11
715.0086811994754
 21
1148.1166666666609
  0
LINE
  8
_0-0_0
  6
CONTINUOUS
 62
    7
 10
836.82061956005782
 20
1144.5666666666625
 11
715.0086811994754
 21
1144.5666666666625
  0
LINE
  8
_0-0_0
  6
CONTINUOUS
 62
    7
 10
836.49637379330102
 20
1141.0166666666582
 11
715.0086811994754
 21
1141.0166666666612
  0
LINE
  8
_0-0_0
  6
CONTINUOUS
 62
    7
 10
836.24385516246775
 20
1137.4666666666599
 11
715.0086811994754
 21
1137.4666666666599
  0
LINE
  8
_0-0_0
  6
CONTINUOUS
 62
    7
 10
836.06275721629117
 20
1133.9166666666586
 11
715.0086811994754
 21
1133.9166666666586
  0
LINE
  8
_0-0_0
  6
CONTINUOUS
 62
    7
 10
835.9528612527356
 20
1130.36666666666
 11
715.0086811994754
 21
1130.3666666666629
  0
LINE
  8
_0-0_0
  6
CONTINUOUS
 62
    7
 10
835.91403499183912
 20
1126.8166666666589
 11
715.0086811994754
 21
1126.8166666666616
  0
LINE
  8
_0-0_0
  6
CONTINUOUS
 62
    7
 10
835.94623177745575
 20
1123.2666666666603
 11
715.0086811994754
 21
1123.2666666666603
  0
LINE
  8
_0-0_0
  6
CONTINUOUS
 62
    7
 10
836.04949029644899
 20
1119.716666666659
 11
715.0086811994754
 21
1119.7166666666617
  0
LINE
  8
_0-0_0
  6
CONTINUOUS
 62
    7
 10
836.22393481145423
 20
1116.1666666666576
 11
715.0086811994754
 21
1116.1666666666606
  0
LINE
  8
_0-0_0
  6
CONTINUOUS
 62
    7
 10
836.46977591058658
 20
1112.6166666666591
 11
715.0086811994754
 21
1112.616666666662
  0
LINE
  8
_0-0_0
  6
CONTINUOUS
 62
    7
 10
836.78731178446242
 20
1109.0666666666607
 11
715.0086811994754
 21
1109.0666666666607
  0
LINE
  8
_0-0_0
  6
CONTINUOUS
 62
    7
 10
837.17693004895182
 20
1105.5166666666594
 11
715.0086811994754
 21
1105.5166666666594
  0
LINE
  8
_0-0_0
  6
CONTINUOUS
 62
    7
 10
837.63911013967345
 20
1101.9666666666581
 11
715.0086811994754
 21
1101.9666666666608
  0
LINE
  8
_0-0_0
  6
CONTINUOUS
 62
    7
 10
838.1744263133271
 20
1098.4166666666567
 11
715.0086811994754
 21
1098.4166666666624
  0
LINE
  8
_0-0_0
  6
CONTINUOUS
 62
    7
 10
838.78355130044611
 20
1094.8666666666611
 11
715.0086811994754
 21
1094.8666666666611
  0
LINE
  8
_0-0_0
  6
CONTINUOUS
 62
    7
 10
839.46726066502038
 20
1091.3166666666598
 11
715.0086811994754
 21
1091.3166666666598
  0
LINE
  8
_0-0_0
  6
CONTINUOUS
 62
    7
 10
840.2264379390715
 20
1087.7666666666585
 11
715.0086811994754
 21
1087.7666666666585
  0
LINE
  8
_0-0_0
  6
CONTINUOUS
 62
    7
 10
841.06208061437542
 20
1084.2166666666571
 11
715.0086811994754
 21
1084.2166666666628
  0
LINE
  8
_0-0_0
  6
CONTINUOUS
 62
    7
 10
841.97530709059265
 20
1080.6666666666588
 11
715.0086811994754
 21
1080.6666666666615
  0
LINE
  8
_0-0_0
  6
CONTINUOUS
 62
    7
 10
842.96736469904658
 20
1077.1166666666602
 11
715.0086811994754
 21
1077.1166666666602
  0
LINE
  8
_0-0_0
  6
CONTINUOUS
 62
    7
 10
844.03963894488925
 20
1073.5666666666589
 11
715.0086811994754
 21
1073.5666666666589
  0
LINE
  8
_0-0_0
  6
CONTINUOUS
 62
    7
 10
1354.008681199474
 20
1425.0166666666614
 11
715.0086811994754
 21
1425.0166666666614
  0
LINE
  8
_0-0_0
  6
CONTINUOUS
 62
    7
 10
1350.4586811994727
 20
1421.4666666666631
 11
715.0086811994754
 21
1421.4666666666631
  0
LINE
  8
_0-0_0
  6
CONTINUOUS
 62
    7
 10
1346.9086811994714
 20
1417.9166666666617
 11
715.0086811994754
 21
1417.9166666666617
  0
LINE
  8
_0-0_0
  6
CONTINUOUS
 62
    7
 10
1343.3586811994701
 20
1414.3666666666604
 11
715.0086811994754
 21
1414.3666666666604
  0
LINE
  8
_0-0_0
  6
CONTINUOUS
 62
    7
 10
1339.8086811994744
 20
1410.8166666666591
 11
715.0086811994754
 21
1410.8166666666591
  0
LINE
  8
_0-0_0
  6
CONTINUOUS
 62
    7
 10
1336.2586811994731
 20
1407.2666666666605
 11
715.0086811994754
 21
1407.2666666666605
  0
LINE
  8
_0-0_0
  6
CONTINUOUS
 62
    7
 10
1332.7086811994718
 20
1403.7166666666621
 11
715.0086811994754
 21
1403.7166666666621
  0
LINE
  8
_0-0_0
  6
CONTINUOUS
 62
    7
 10
1329.1586811994705
 20
1400.1666666666579
 11
715.0086811994754
 21
1400.1666666666608
  0
LINE
  8
_0-0_0
  6
CONTINUOUS
 62
    7
 10
1325.6086811994692
 20
1396.6166666666595
 11
715.0086811994754
 21
1396.6166666666622
  0
LINE
  8
_0-0_0
  6
CONTINUOUS
 62
    7
 10
1322.0586811994735
 20
1393.0666666666611
 11
715.0086811994754
 21
1393.0666666666611
  0
LINE
  8
_0-0_0
  6
CONTINUOUS
 62
    7
 10
1318.5086811994722
 20
1389.5166666666596
 11
715.0086811994754
 21
1389.5166666666596
  0
LINE
  8
_0-0_0
  6
CONTINUOUS
 62
    7
 10
1314.9586811994709
 20
1385.9666666666612
 11
715.0086811994754
 21
1385.9666666666612
  0
LINE
  8
_0-0_0
  6
CONTINUOUS
 62
    7
 10
1311.4086811994696
 20
1382.4166666666599
 11
715.0086811994754
 21
1382.4166666666599
  0
LINE
  8
_0-0_0
  6
CONTINUOUS
 62
    7
 10
1307.8586811994739
 20
1378.8666666666613
 11
715.0086811994754
 21
1378.8666666666613
  0
LINE
  8
_0-0_0
  6
CONTINUOUS
 62
    7
 10
1304.3086811994726
 20
1375.3166666666602
 11
715.0086811994754
 21
1375.3166666666602
  0
LINE
  8
_0-0_0
  6
CONTINUOUS
 62
    7
 10
1300.7586811994713
 20
1371.7666666666616
 11
715.0086811994754
 21
1371.7666666666616
  0
LINE
  8
_0-0_0
  6
CONTINUOUS
 62
    7
 10
1297.20868119947
 20
1368.2166666666603
 11
715.0086811994754
 21
1368.2166666666603
  0
LINE
  8
_0-0_0
  6
CONTINUOUS
 62
    7
 10
1293.6586811994744
 20
1364.666666666659
 11
715.0086811994754
 21
1364.666666666659
  0
LINE
  8
_0-0_0
  6
CONTINUOUS
 62
    7
 10
1290.108681199473
 20
1361.1166666666634
 11
715.0086811994754
 21
1361.1166666666634
  0
LINE
  8
_0-0_0
  6
CONTINUOUS
 62
    7
 10
1286.5586811994717
 20
1357.5666666666593
 11
715.0086811994754
 21
1357.5666666666621
  0
LINE
  8
_0-0_0
  6
CONTINUOUS
 62
    7
 10
1283.0086811994761
 20
1354.0166666666607
 11
715.0086811994754
 21
1354.0166666666607
  0
LINE
  8
_0-0_0
  6
CONTINUOUS
 62
    7
 10
1279.4586811994748
 20
1350.4666666666594
 11
715.0086811994754
 21
1350.4666666666594
  0
LINE
  8
_0-0_0
  6
CONTINUOUS
 62
    7
 10
1275.9086811994734
 20
1346.9166666666611
 11
715.0086811994754
 21
1346.9166666666611
  0
LINE
  8
_0-0_0
  6
CONTINUOUS
 62
    7
 10
1272.3586811994721
 20
1343.3666666666595
 11
715.0086811994754
 21
1343.3666666666625
  0
LINE
  8
_0-0_0
  6
CONTINUOUS
 62
    7
 10
1268.8086811994708
 20
1339.8166666666584
 11
715.0086811994754
 21
1339.8166666666611
  0
LINE
  8
_0-0_0
  6
CONTINUOUS
 62
    7
 10
1265.2586811994695
 20
1336.2666666666598
 11
715.0086811994754
 21
1336.2666666666598
  0
LINE
  8
_0-0_0
  6
CONTINUOUS
 62
    7
 10
1261.7086811994682
 20
1332.7166666666612
 11
715.0086811994754
 21
1332.7166666666612
  0
LINE
  8
_0-0_0
  6
CONTINUOUS
 62
    7
 10
1258.1586811994725
 20
1329.1666666666572
 11
715.0086811994754
 21
1329.1666666666601
  0
LINE
  8
_0-0_0
  6
CONTINUOUS
 62
    7
 10
1254.6086811994712
 20
1325.6166666666616
 11
715.0086811994754
 21
1325.6166666666616
  0
LINE
  8
_0-0_0
  6
CONTINUOUS
 62
    7
 10
1251.0586811994699
 20
1322.0666666666602
 11
715.0086811994754
 21
1322.0666666666602
  0
LINE
  8
_0-0_0
  6
CONTINUOUS
 62
    7
 10
1247.5086811994743
 20
1318.5166666666589
 11
715.0086811994754
 21
1318.5166666666589
  0
LINE
  8
_0-0_0
  6
CONTINUOUS
 62
    7
 10
1243.9586811994729
 20
1314.9666666666576
 11
715.0086811994754
 21
1314.9666666666633
  0
LINE
  8
_0-0_0
  6
CONTINUOUS
 62
    7
 10
1240.4086811994716
 20
1311.4166666666592
 11
715.0086811994754
 21
1311.416666666662
  0
LINE
  8
_0-0_0
  6
CONTINUOUS
 62
    7
 10
1236.8586811994703
 20
1307.8666666666606
 11
715.0086811994754
 21
1307.8666666666606
  0
LINE
  8
_0-0_0
  6
CONTINUOUS
 62
    7
 10
1233.3086811994747
 20
1304.3166666666593
 11
715.0086811994754
 21
1304.3166666666593
  0
LINE
  8
_0-0_0
  6
CONTINUOUS
 62
    7
 10
1229.7586811994734
 20
1300.766666666658
 11
1047.6661065278336
 21
1300.766666666658
  0
LINE
  8
_0-0_0
  6
CONTINUOUS
 62
    7
 10
979.08258920443814
 20
1300.766666666658
 11
715.0086811994754
 21
1300.766666666658
  0
LINE
  8
_0-0_0
  6
CONTINUOUS
 62
    7
 10
1226.208681199472
 20
1297.2166666666594
 11
1062.359482809768
 21
1297.2166666666624
  0
LINE
  8
_0-0_0
  6
CONTINUOUS
 62
    7
 10
964.38921292251507
 20
1297.2166666666624
 11
715.0086811994754
 21
1297.2166666666624
  0
LINE
  8
_0-0_0
  6
CONTINUOUS
 62
    7
 10
1222.6586811994707
 20
1293.6666666666583
 11
1073.3573219402786
 21
1293.6666666666583
  0
LINE
  8
_0-0_0
  6
CONTINUOUS
 62
    7
 10
953.39137379199315
 20
1293.6666666666583
 11
715.0086811994754
 21
1293.6666666666611
  0
LINE
  8
_0-0_0
  6
CONTINUOUS
 62
    7
 10
1219.1086811994751
 20
1290.1166666666597
 11
1082.4479746140696
 21
1290.1166666666597
  0
LINE
  8
_0-0_0
  6
CONTINUOUS
 62
    7
 10
944.30072111820778
 20
1290.1166666666597
 11
715.0086811994754
 21
1290.1166666666597
  0
LINE
  8
_0-0_0
  6
CONTINUOUS
 62
    7
 10
1215.5586811994738
 20
1286.5666666666611
 11
1090.3104879138766
 21
1286.5666666666611
  0
LINE
  8
_0-0_0
  6
CONTINUOUS
 62
    7
 10
936.43820781840077
 20
1286.5666666666611
 11
715.0086811994754
 21
1286.5666666666611
  0
LINE
  8
_0-0_0
  6
CONTINUOUS
 62
    7
 10
1212.0086811994724
 20
1283.0166666666601
 11
1097.2907847469969
 21
1283.0166666666601
  0
LINE
  8
_0-0_0
  6
CONTINUOUS
 62
    7
 10
929.45791098528048
 20
1283.0166666666601
 11
715.0086811994754
 21
1283.0166666666601
  0
LINE
  8
_0-0_0
  6
CONTINUOUS
 62
    7
 10
1208.4586811994711
 20
1279.4666666666585
 11
1103.5938696566689
 21
1279.4666666666615
  0
LINE
  8
_0-0_0
  6
CONTINUOUS
 62
    7
 10
923.15482607560853
 20
1279.4666666666615
 11
715.0086811994754
 21
1279.4666666666615
  0
LINE
  8
_0-0_0
  6
CONTINUOUS
 62
    7
 10
1204.9086811994698
 20
1275.9166666666601
 11
1109.3532562025302
 21
1275.9166666666601
  0
LINE
  8
_0-0_0
  6
CONTINUOUS
 62
    7
 10
917.39543952974714
 20
1275.9166666666601
 11
715.0086811994754
 21
1275.9166666666601
  0
LINE
  8
_0-0_0
  6
CONTINUOUS
 62
    7
 10
1201.3586811994742
 20
1272.3666666666618
 11
1114.6617339454451
 21
1272.3666666666588
  0
LINE
  8
_0-0_0
  6
CONTINUOUS
 62
    7
 10
912.08696178682658
 20
1272.3666666666588
 11
715.0086811994754
 21
1272.3666666666618
  0
LINE
  8
_0-0_0
  6
CONTINUOUS
 62
    7
 10
1197.8086811994729
 20
1268.8166666666575
 11
1119.58693333562
 21
1268.8166666666602
  0
LINE
  8
_0-0_0
  6
CONTINUOUS
 62
    7
 10
907.16176239665742
 20
1268.8166666666602
 11
715.0086811994754
 21
1268.8166666666602
  0
LINE
  8
_0-0_0
  6
CONTINUOUS
 62
    7
 10
1194.2586811994715
 20
1265.2666666666619
 11
1124.1799751846315
 21
1265.2666666666619
  0
LINE
  8
_0-0_0
  6
CONTINUOUS
 62
    7
 10
902.56872054764585
 20
1265.2666666666619
 11
715.0086811994754
 21
1265.2666666666619
  0
LINE
  8
_0-0_0
  6
CONTINUOUS
 62
    7
 10
1190.7086811994702
 20
1261.7166666666606
 11
1128.4806282281522
 21
1261.7166666666606
  0
LINE
  8
_0-0_0
  6
CONTINUOUS
 62
    7
 10
898.26806750412516
 20
1261.7166666666606
 11
715.0086811994754
 21
1261.7166666666606
  0
LINE
  8
_0-0_0
  6
CONTINUOUS
 62
    7
 10
1187.1586811994746
 20
1258.1666666666592
 11
1132.5205585155402
 21
1258.1666666666592
  0
LINE
  8
_0-0_0
  6
CONTINUOUS
 62
    7
 10
894.22813721673151
 20
1258.1666666666592
 11
715.0086811994754
 21
1258.1666666666592
  0
LINE
  8
_0-0_0
  6
CONTINUOUS
 62
    7
 10
1183.6086811994733
 20
1254.6166666666579
 11
1136.3254692333101
 21
1254.6166666666579
  0
LINE
  8
_0-0_0
  6
CONTINUOUS
 62
    7
 10
890.42322649896164
 20
1254.6166666666579
 11
715.0086811994754
 21
1254.6166666666636
  0
LINE
  8
_0-0_0
  6
CONTINUOUS
 62
    7
 10
1180.0586811994719
 20
1251.0666666666593
 11
1139.9165620824988
 21
1251.0666666666566
  0
LINE
  8
_0-0_0
  6
CONTINUOUS
 62
    7
 10
886.8321336497786
 20
1251.0666666666593
 11
715.0086811994754
 21
1251.0666666666623
  0
LINE
  8
_0-0_0
  6
CONTINUOUS
 62
    7
 10
1176.5086811994763
 20
1247.516666666661
 11
1143.3115662145042
 21
1247.516666666661
  0
LINE
  8
_0-0_0
  6
CONTINUOUS
 62
    7
 10
883.43712951776752
 20
1247.516666666661
 11
715.0086811994754
 21
1247.516666666661
  0
LINE
  8
_0-0_0
  6
CONTINUOUS
 62
    7
 10
1172.9586811994693
 20
1243.9666666666596
 11
1146.5254817157756
 21
1243.9666666666596
  0
LINE
  8
_0-0_0
  6
CONTINUOUS
 62
    7
 10
880.22321401650174
 20
1243.9666666666596
 11
715.0086811994754
 21
1243.9666666666596
  0
LINE
  8
_0-0_0
  6
CONTINUOUS
 62
    7
 10
1169.4086811994737
 20
1240.4166666666583
 11
1149.5711289543067
 21
1240.4166666666583
  0
LINE
  8
_0-0_0
  6
CONTINUOUS
 62
    7
 10
877.1775667779707
 20
1240.4166666666583
 11
715.0086811994754
 21
1240.4166666666583
  0
LINE
  8
_0-0_0
  6
CONTINUOUS
 62
    7
 10
1165.8586811994724
 20
1236.86666666666
 11
1152.4595624365986
 21
1236.86666666666
  0
LINE
  8
_0-0_0
  6
CONTINUOUS
 62
    7
 10
874.28913329567308
 20
1236.8666666666627
 11
715.0086811994754
 21
1236.8666666666627
  0
LINE
  8
_0-0_0
  6
CONTINUOUS
 62
    7
 10
1162.308681199471
 20
1233.3166666666614
 11
1155.2003879485028
 21
1233.3166666666614
  0
LINE
  8
_0-0_0
  6
CONTINUOUS
 62
    7
 10
871.54830778377459
 20
1233.3166666666614
 11
715.0086811994754
 21
1233.3166666666614
  0
LINE
  8
_0-0_0
  6
CONTINUOUS
 62
    7
 10
1158.7586811994754
 20
1229.7666666666601
 11
1157.8020092706538
 21
1229.7666666666601
  0
LINE
  8
_0-0_0
  6
CONTINUOUS
 62
    7
 10
868.9466864616179
 20
1229.7666666666601
 11
715.0086811994754
 21
1229.7666666666601
  0
LINE
  8
_0-0_0
  6
CONTINUOUS
 62
    7
 10
866.47687303382099
 20
1226.2166666666587
 11
715.0086811994754
 21
1226.2166666666617
  0
LINE
  8
_0-0_0
  6
CONTINUOUS
 62
    7
 10
864.13232347138091
 20
1222.6666666666574
 11
715.0086811994754
 21
1222.6666666666601
  0
LINE
  8
_0-0_0
  6
CONTINUOUS
 62
    7
 10
861.90722080954174
 20
1219.1166666666591
 11
715.0086811994754
 21
1219.1166666666618
  0
LINE
  8
_0-0_0
  6
CONTINUOUS
 62
    7
 10
859.79637316887647
 20
1215.5666666666605
 11
715.0086811994754
 21
1215.5666666666605
  0
LINE
  8
_0-0_0
  6
CONTINUOUS
 62
    7
 10
857.79512995627556
 20
1212.0166666666591
 11
715.0086811994754
 21
1212.0166666666591
  0
LINE
  8
_0-0_0
  6
CONTINUOUS
 62
    7
 10
855.89931245170305
 20
1208.4666666666635
 11
715.0086811994754
 21
1208.4666666666608
  0
LINE
  8
_0-0_0
  6
CONTINUOUS
 62
    7
 10
854.10515589194915
 20
1204.9166666666622
 11
715.0086811994754
 21
1204.9166666666622
  0
LINE
  8
_0-0_0
  6
CONTINUOUS
 62
    7
 10
852.40926082722694
 20
1201.3666666666609
 11
715.0086811994754
 21
1201.3666666666609
  0
LINE
  8
_0-0_0
  6
CONTINUOUS
 62
    7
 10
850.80855202095336
 20
1197.8166666666596
 11
715.0086811994754
 21
1197.8166666666596
  0
LINE
  8
_0-0_0
  6
CONTINUOUS
 62
    7
 10
849.30024353485578
 20
1194.2666666666582
 11
715.0086811994754
 21
1194.2666666666582
  0
LINE
  8
_0-0_0
  6
CONTINUOUS
 62
    7
 10
847.8818089242111
 20
1190.7166666666626
 11
715.0086811994754
 21
1190.7166666666626
  0
LINE
  8
_0-0_0
  6
CONTINUOUS
 62
    7
 10
846.55095568513161
 20
1187.1666666666613
 11
715.0086811994754
 21
1187.1666666666613
  0
LINE
  8
_0-0_0
  6
CONTINUOUS
 62
    7
 10
845.30560326408022
 20
1183.61666666666
 11
715.0086811994754
 21
1183.61666666666
  0
LINE
  8
_0-0_0
  6
CONTINUOUS
 62
    7
 10
844.1438640712704
 20
1180.0666666666586
 11
715.0086811994754
 21
1180.0666666666616
  0
LINE
  8
_0-0_0
  6
CONTINUOUS
 62
    7
 10
843.06402704330026
 20
1176.5166666666601
 11
715.0086811994754
 21
1176.5166666666601
  0
LINE
  8
_0-0_0
  6
CONTINUOUS
 62
    7
 10
842.06454338282128
 20
1172.966666666659
 11
715.0086811994754
 21
1172.9666666666617
  0
LINE
  8
_0-0_0
  6
CONTINUOUS
 62
    7
 10
841.1440141689468
 20
1169.4166666666604
 11
715.0086811994754
 21
1169.4166666666604
  0
LINE
  8
_0-0_0
  6
CONTINUOUS
 62
    7
 10
840.30117958527057
 20
1165.8666666666618
 11
715.0086811994754
 21
1165.8666666666618
  0
LINE
  8
_0-0_0
  6
CONTINUOUS
 62
    7
 10
839.53490955563552
 20
1162.3166666666634
 11
715.0086811994754
 21
1162.3166666666607
  0
LINE
  8
_0-0_0
  6
CONTINUOUS
 62
    7
 10
838.84419561317145
 20
1158.7666666666621
 11
715.0086811994754
 21
1158.7666666666621
  0
LINE
  8
_0-0_0
  6
CONTINUOUS
 62
    7
 10
838.22814385709421
 20
1155.2166666666608
 11
715.0086811994754
 21
1155.2166666666608
  0
LINE
  8
_0-0_0
  6
CONTINUOUS
 62
    7
 10
837.68596887620106
 20
1151.6666666666624
 11
715.0086811994754
 21
1151.6666666666595
  0
LINE
  8
_0-0_0
  6
CONTINUOUS
 62
    7
 10
837.21698853805151
 20
1148.1166666666609
 11
715.0086811994754
 21
1148.1166666666609
  0
LINE
  8
_0-0_0
  6
CONTINUOUS
 62
    7
 10
836.82061956005782
 20
1144.5666666666625
 11
715.0086811994754
 21
1144.5666666666625
  0
LINE
  8
_0-0_0
  6
CONTINUOUS
 62
    7
 10
836.49637379330102
 20
1141.0166666666582
 11
715.0086811994754
 21
1141.0166666666612
  0
LINE
  8
_0-0_0
  6
CONTINUOUS
 62
    7
 10
836.24385516246775
 20
1137.4666666666599
 11
715.0086811994754
 21
1137.4666666666599
  0
LINE
  8
_0-0_0
  6
CONTINUOUS
 62
    7
 10
836.06275721629117
 20
1133.9166666666586
 11
715.0086811994754
 21
1133.9166666666586
  0
LINE
  8
_0-0_0
  6
CONTINUOUS
 62
    7
 10
835.9528612527356
 20
1130.36666666666
 11
715.0086811994754
 21
1130.3666666666629
  0
LINE
  8
_0-0_0
  6
CONTINUOUS
 62
    7
 10
835.91403499183912
 20
1126.8166666666589
 11
715.0086811994754
 21
1126.8166666666616
  0
LINE
  8
_0-0_0
  6
CONTINUOUS
 62
    7
 10
835.94623177745575
 20
1123.2666666666603
 11
715.0086811994754
 21
1123.2666666666603
  0
LINE
  8
_0-0_0
  6
CONTINUOUS
 62
    7
 10
836.04949029644899
 20
1119.716666666659
 11
715.0086811994754
 21
1119.7166666666617
  0
LINE
  8
_0-0_0
  6
CONTINUOUS
 62
    7
 10
836.22393481145423
 20
1116.1666666666576
 11
715.0086811994754
 21
1116.1666666666606
  0
LINE
  8
_0-0_0
  6
CONTINUOUS
 62
    7
 10
836.46977591058658
 20
1112.6166666666591
 11
715.0086811994754
 21
1112.616666666662
  0
LINE
  8
_0-0_0
  6
CONTINUOUS
 62
    7
 10
836.78731178446242
 20
1109.0666666666607
 11
715.0086811994754
 21
1109.0666666666607
  0
LINE
  8
_0-0_0
  6
CONTINUOUS
 62
    7
 10
837.17693004895182
 20
1105.5166666666594
 11
715.0086811994754
 21
1105.5166666666594
  0
LINE
  8
_0-0_0
  6
CONTINUOUS
 62
    7
 10
837.63911013967345
 20
1101.9666666666581
 11
715.0086811994754
 21
1101.9666666666608
  0
LINE
  8
_0-0_0
  6
CONTINUOUS
 62
    7
 10
838.1744263133271
 20
1098.4166666666567
 11
715.0086811994754
 21
1098.4166666666624
  0
LINE
  8
_0-0_0
  6
CONTINUOUS
 62
    7
 10
838.78355130044611
 20
1094.8666666666611
 11
715.0086811994754
 21
1094.8666666666611
  0
LINE
  8
_0-0_0
  6
CONTINUOUS
 62
    7
 10
839.46726066502038
 20
1091.3166666666598
 11
715.0086811994754
 21
1091.3166666666598
  0
LINE
  8
_0-0_0
  6
CONTINUOUS
 62
    7
 10
840.2264379390715
 20
1087.7666666666585
 11
715.0086811994754
 21
1087.7666666666585
  0
LINE
  8
_0-0_0
  6
CONTINUOUS
 62
    7
 10
841.06208061437542
 20
1084.2166666666571
 11
715.0086811994754
 21
1084.2166666666628
  0
LINE
  8
_0-0_0
  6
CONTINUOUS
 62
    7
 10
841.97530709059265
 20
1080.6666666666588
 11
715.0086811994754
 21
1080.6666666666615
  0
LINE
  8
_0-0_0
  6
CONTINUOUS
 62
    7
 10
842.96736469904658
 20
1077.1166666666602
 11
715.0086811994754
 21
1077.1166666666602
  0
LINE
  8
_0-0_0
  6
CONTINUOUS
 62
    7
 10
844.03963894488925
 20
1073.5666666666589
 11
715.0086811994754
 21
1073.5666666666589
  0
LINE
  8
_0-0_0
  6
CONTINUOUS
 62
    7
 10
845.19366413944681
 20
1070.0166666666605
 11
715.0086811994754
 21
1070.0166666666605
  0
LINE
  8
_0-0_0
  6
CONTINUOUS
 62
    7
 10
846.43113562883059
 20
1066.466666666659
 11
715.0086811994754
 21
1066.4666666666619
  0
LINE
  8
_0-0_0
  6
CONTINUOUS
 62
    7
 10
847.75392386763428
 20
1062.9166666666579
 11
715.0086811994754
 21
1062.9166666666606
  0
LINE
  8
_0-0_0
  6
CONTINUOUS
 62
    7
 10
849.16409063847027
 20
1059.3666666666593
 11
715.0086811994754
 21
1059.3666666666622
  0
LINE
  8
_0-0_0
  6
CONTINUOUS
 62
    7
 10
850.66390778280834
 20
1055.816666666658
 11
715.0086811994754
 21
1055.8166666666607
  0
LINE
  8
_0-0_0
  6
CONTINUOUS
 62
    7
 10
852.25587888929226
 20
1052.2666666666596
 11
715.0086811994754
 21
1052.2666666666596
  0
LINE
  8
_0-0_0
  6
CONTINUOUS
 62
    7
 10
853.94276448700452
 20
1048.716666666661
 11
715.0086811994754
 21
1048.716666666661
  0
LINE
  8
_0-0_0
  6
CONTINUOUS
 62
    7
 10
855.72761142002491
 20
1045.1666666666597
 11
715.0086811994754
 21
1045.1666666666597
  0
LINE
  8
_0-0_0
  6
CONTINUOUS
 62
    7
 10
857.61378724361066
 20
1041.6166666666584
 11
715.0086811994754
 21
1041.6166666666613
  0
LINE
  8
_0-0_0
  6
CONTINUOUS
 62
    7
 10
859.60502069463587
 20
1038.0666666666571
 11
715.0086811994754
 21
1038.0666666666627
  0
LINE
  8
_0-0_0
  6
CONTINUOUS
 62
    7
 10
861.70544956424351
 20
1034.5166666666614
 11
715.0086811994754
 21
1034.5166666666614
  0
LINE
  8
_0-0_0
  6
CONTINUOUS
 62
    7
 10
863.91967766328435
 20
1030.9666666666601
 11
715.0086811994754
 21
1030.9666666666601
  0
LINE
  8
_0-0_0
  6
CONTINUOUS
 62
    7
 10
866.25284305200125
 20
1027.4166666666588
 11
715.0086811994754
 21
1027.4166666666588
  0
LINE
  8
_0-0_0
  6
CONTINUOUS
 62
    7
 10
868.71070035194862
 20
1023.8666666666575
 11
715.0086811994754
 21
1023.8666666666631
  0
LINE
  8
_0-0_0
  6
CONTINUOUS
 62
    7
 10
871.29972083708935
 20
1020.316666666659
 11
715.0086811994754
 21
1020.3166666666618
  0
LINE
  8
_0-0_0
  6
CONTINUOUS
 62
    7
 10
874.02721521254989
 20
1016.7666666666605
 11
715.0086811994754
 21
1016.7666666666605
  0
LINE
  8
_0-0_0
  6
CONTINUOUS
 62
    7
 10
876.90148568427162
 20
1013.2166666666592
 11
715.0086811994754
 21
1013.2166666666592
  0
LINE
  8
_0-0_0
  6
CONTINUOUS
 62
    7
 10
879.93201633133822
 20
1009.6666666666579
 11
715.0086811994754
 21
1009.6666666666607
  0
LINE
  8
_0-0_0
  6
CONTINUOUS
 62
    7
 10
883.12971427696993
 20
1006.1166666666594
 11
715.0086811994754
 21
1006.1166666666622
  0
LINE
  8
_0-0_0
  6
CONTINUOUS
 62
    7
 10
886.50721929411702
 20
1002.5666666666581
 11
715.0086811994754
 21
1002.5666666666609
  0
LINE
  8
_0-0_0
  6
CONTINUOUS
 62
    7
 10
890.07930723009849
 20
999.0166666666596
 11
715.0086811994754
 21
999.0166666666596
  0
LINE
  8
_0-0_0
  6
CONTINUOUS
 62
    7
 10
893.86342460480819
 20
995.46666666665828
 11
715.0086811994754
 21
995.46666666666113
  0
LINE
  8
_0-0_0
  6
CONTINUOUS
 62
    7
 10
897.88041074340867
 20
991.91666666665697
 11
715.0086811994754
 21
991.91666666665981
  0
LINE
  8
_0-0_0
  6
CONTINUOUS
 62
    7
 10
902.15549494342895
 20
988.36666666666133
 11
715.0086811994754
 21
988.36666666666133
  0
LINE
  8
_0-0_0
  6
CONTINUOUS
 62
    7
 10
906.71970906042816
 20
984.81666666666001
 11
715.0086811994754
 21
984.81666666666001
  0
LINE
  8
_0-0_0
  6
CONTINUOUS
 62
    7
 10
910.25868119947404
 20
981.26666666665869
 11
715.0086811994754
 21
981.26666666665869
  0
LINE
  8
_0-0_0
  6
CONTINUOUS
 62
    7
 10
906.70868119947272
 20
977.71666666665737
 11
715.0086811994754
 21
977.71666666666306
  0
LINE
  8
_0-0_0
  6
CONTINUOUS
 62
    7
 10
903.1586811994714
 20
974.16666666666174
 11
715.0086811994754
 21
974.16666666666174
  0
LINE
  8
_0-0_0
  6
CONTINUOUS
 62
    7
 10
899.60868119947577
 20
970.61666666666042
 11
715.0086811994754
 21
970.61666666666042
  0
LINE
  8
_0-0_0
  6
CONTINUOUS
 62
    7
 10
896.05868119947445
 20
967.0666666666591
 11
715.0086811994754
 21
967.0666666666591
  0
LINE
  8
_0-0_0
  6
CONTINUOUS
 62
    7
 10
892.50868119947313
 20
963.51666666666063
 11
715.0086811994754
 21
963.51666666666063
  0
LINE
  8
_0-0_0
  6
CONTINUOUS
 62
    7
 10
888.95868119947181
 20
959.96666666666215
 11
715.0086811994754
 21
959.96666666666215
  0
LINE
  8
_0-0_0
  6
CONTINUOUS
 62
    7
 10
885.40868119947618
 20
956.41666666666083
 11
715.0086811994754
 21
956.41666666666083
  0
LINE
  8
_0-0_0
  6
CONTINUOUS
 62
    7
 10
881.85868119946917
 20
952.86666666665951
 11
715.0086811994754
 21
952.86666666665951
  0
LINE
  8
_0-0_0
  6
CONTINUOUS
 62
    7
 10
878.30868119947354
 20
949.31666666665819
 11
715.0086811994754
 21
949.31666666666104
  0
LINE
  8
_0-0_0
  6
CONTINUOUS
 62
    7
 10
874.75868119947222
 20
945.76666666665972
 11
715.0086811994754
 21
945.76666666665972
  0
LINE
  8
_0-0_0
  6
CONTINUOUS
 62
    7
 10
871.2086811994709
 20
942.21666666666124
 11
715.0086811994754
 21
942.21666666666124
  0
LINE
  8
_0-0_0
  6
CONTINUOUS
 62
    7
 10
867.65868119946958
 20
938.66666666665992
 11
715.0086811994754
 21
938.66666666665992
  0
LINE
  8
_0-0_0
  6
CONTINUOUS
 62
    7
 10
864.10868119946826
 20
935.1166666666586
 11
715.0086811994754
 21
935.11666666666144
  0
LINE
  8
_0-0_0
  6
CONTINUOUS
 62
    7
 10
860.55868119947263
 20
931.56666666666013
 11
715.0086811994754
 21
931.56666666666013
  0
LINE
  8
_0-0_0
  6
CONTINUOUS
 62
    7
 10
857.00868119947131
 20
928.01666666666165
 11
715.0086811994754
 21
928.01666666666165
  0
LINE
  8
_0-0_0
  6
CONTINUOUS
 62
    7
 10
853.45868119946999
 20
924.46666666666033
 11
715.0086811994754
 21
924.46666666666033
  0
LINE
  8
_0-0_0
  6
CONTINUOUS
 62
    7
 10
849.90868119947436
 20
920.91666666665901
 11
715.0086811994754
 21
920.91666666665901
  0
LINE
  8
_0-0_0
  6
CONTINUOUS
 62
    7
 10
846.35868119947304
 20
917.36666666666338
 11
715.0086811994754
 21
917.36666666666338
  0
LINE
  8
_0-0_0
  6
CONTINUOUS
 62
    7
 10
842.80868119947172
 20
913.81666666666206
 11
715.0086811994754
 21
913.81666666666206
  0
LINE
  8
_0-0_0
  6
CONTINUOUS
 62
    7
 10
839.2586811994704
 20
910.26666666666074
 11
715.0086811994754
 21
910.26666666666074
  0
LINE
  8
_0-0_0
  6
CONTINUOUS
 62
    7
 10
835.70868119946908
 20
906.71666666665942
 11
715.0086811994754
 21
906.71666666665942
  0
LINE
  8
_0-0_0
  6
CONTINUOUS
 62
    7
 10
832.15868119947345
 20
903.16666666666094
 11
715.0086811994754
 21
903.16666666666094
  0
LINE
  8
_0-0_0
  6
CONTINUOUS
 62
    7
 10
828.60868119947213
 20
899.61666666666247
 11
715.0086811994754
 21
899.61666666666247
  0
LINE
  8
_0-0_0
  6
CONTINUOUS
 62
    7
 10
825.05868119947081
 20
896.06666666665831
 11
715.0086811994754
 21
896.06666666666115
  0
LINE
  8
_0-0_0
  6
CONTINUOUS
 62
    7
 10
821.50868119947518
 20
892.51666666665983
 11
715.0086811994754
 21
892.51666666665983
  0
LINE
  8
_0-0_0
  6
CONTINUOUS
 62
    7
 10
845.19366413944681
 20
1070.0166666666605
 11
715.0086811994754
 21
1070.0166666666605
  0
LINE
  8
_0-0_0
  6
CONTINUOUS
 62
    7
 10
846.43113562883059
 20
1066.466666666659
 11
715.0086811994754
 21
1066.4666666666619
  0
LINE
  8
_0-0_0
  6
CONTINUOUS
 62
    7
 10
847.75392386763428
 20
1062.9166666666579
 11
715.0086811994754
 21
1062.9166666666606
  0
LINE
  8
_0-0_0
  6
CONTINUOUS
 62
    7
 10
849.16409063847027
 20
1059.3666666666593
 11
715.0086811994754
 21
1059.3666666666622
  0
LINE
  8
_0-0_0
  6
CONTINUOUS
 62
    7
 10
850.66390778280834
 20
1055.816666666658
 11
715.0086811994754
 21
1055.8166666666607
  0
LINE
  8
_0-0_0
  6
CONTINUOUS
 62
    7
 10
852.25587888929226
 20
1052.2666666666596
 11
715.0086811994754
 21
1052.2666666666596
  0
LINE
  8
_0-0_0
  6
CONTINUOUS
 62
    7
 10
853.94276448700452
 20
1048.716666666661
 11
715.0086811994754
 21
1048.716666666661
  0
LINE
  8
_0-0_0
  6
CONTINUOUS
 62
    7
 10
855.72761142002491
 20
1045.1666666666597
 11
715.0086811994754
 21
1045.1666666666597
  0
LINE
  8
_0-0_0
  6
CONTINUOUS
 62
    7
 10
857.61378724361066
 20
1041.6166666666584
 11
715.0086811994754
 21
1041.6166666666613
  0
LINE
  8
_0-0_0
  6
CONTINUOUS
 62
    7
 10
859.60502069463587
 20
1038.0666666666571
 11
715.0086811994754
 21
1038.0666666666627
  0
LINE
  8
_0-0_0
  6
CONTINUOUS
 62
    7
 10
861.70544956424351
 20
1034.5166666666614
 11
715.0086811994754
 21
1034.5166666666614
  0
LINE
  8
_0-0_0
  6
CONTINUOUS
 62
    7
 10
863.91967766328435
 20
1030.9666666666601
 11
715.0086811994754
 21
1030.9666666666601
  0
LINE
  8
_0-0_0
  6
CONTINUOUS
 62
    7
 10
866.25284305200125
 20
1027.4166666666588
 11
715.0086811994754
 21
1027.4166666666588
  0
LINE
  8
_0-0_0
  6
CONTINUOUS
 62
    7
 10
868.71070035194862
 20
1023.8666666666575
 11
715.0086811994754
 21
1023.8666666666631
  0
LINE
  8
_0-0_0
  6
CONTINUOUS
 62
    7
 10
871.29972083708935
 20
1020.316666666659
 11
715.0086811994754
 21
1020.3166666666618
  0
LINE
  8
_0-0_0
  6
CONTINUOUS
 62
    7
 10
874.02721521254989
 20
1016.7666666666605
 11
715.0086811994754
 21
1016.7666666666605
  0
LINE
  8
_0-0_0
  6
CONTINUOUS
 62
    7
 10
876.90148568427162
 20
1013.2166666666592
 11
715.0086811994754
 21
1013.2166666666592
  0
LINE
  8
_0-0_0
  6
CONTINUOUS
 62
    7
 10
879.93201633133822
 20
1009.6666666666579
 11
715.0086811994754
 21
1009.6666666666607
  0
LINE
  8
_0-0_0
  6
CONTINUOUS
 62
    7
 10
883.12971427696993
 20
1006.1166666666594
 11
715.0086811994754
 21
1006.1166666666622
  0
LINE
  8
_0-0_0
  6
CONTINUOUS
 62
    7
 10
886.50721929411702
 20
1002.5666666666581
 11
715.0086811994754
 21
1002.5666666666609
  0
LINE
  8
_0-0_0
  6
CONTINUOUS
 62
    7
 10
890.07930723009849
 20
999.0166666666596
 11
715.0086811994754
 21
999.0166666666596
  0
LINE
  8
_0-0_0
  6
CONTINUOUS
 62
    7
 10
893.86342460480819
 20
995.46666666665828
 11
715.0086811994754
 21
995.46666666666113
  0
LINE
  8
_0-0_0
  6
CONTINUOUS
 62
    7
 10
897.88041074340867
 20
991.91666666665697
 11
715.0086811994754
 21
991.91666666665981
  0
LINE
  8
_0-0_0
  6
CONTINUOUS
 62
    7
 10
902.15549494342895
 20
988.36666666666133
 11
715.0086811994754
 21
988.36666666666133
  0
LINE
  8
_0-0_0
  6
CONTINUOUS
 62
    7
 10
906.71970906042816
 20
984.81666666666001
 11
715.0086811994754
 21
984.81666666666001
  0
LINE
  8
_0-0_0
  6
CONTINUOUS
 62
    7
 10
910.25868119947404
 20
981.26666666665869
 11
715.0086811994754
 21
981.26666666665869
  0
LINE
  8
_0-0_0
  6
CONTINUOUS
 62
    7
 10
906.70868119947272
 20
977.71666666665737
 11
715.0086811994754
 21
977.71666666666306
  0
LINE
  8
_0-0_0
  6
CONTINUOUS
 62
    7
 10
903.1586811994714
 20
974.16666666666174
 11
715.0086811994754
 21
974.16666666666174
  0
LINE
  8
_0-0_0
  6
CONTINUOUS
 62
    7
 10
899.60868119947577
 20
970.61666666666042
 11
715.0086811994754
 21
970.61666666666042
  0
LINE
  8
_0-0_0
  6
CONTINUOUS
 62
    7
 10
896.05868119947445
 20
967.0666666666591
 11
715.0086811994754
 21
967.0666666666591
  0
LINE
  8
_0-0_0
  6
CONTINUOUS
 62
    7
 10
892.50868119947313
 20
963.51666666666063
 11
715.0086811994754
 21
963.51666666666063
  0
LINE
  8
_0-0_0
  6
CONTINUOUS
 62
    7
 10
888.95868119947181
 20
959.96666666666215
 11
715.0086811994754
 21
959.96666666666215
  0
LINE
  8
_0-0_0
  6
CONTINUOUS
 62
    7
 10
885.40868119947618
 20
956.41666666666083
 11
715.0086811994754
 21
956.41666666666083
  0
LINE
  8
_0-0_0
  6
CONTINUOUS
 62
    7
 10
881.85868119946917
 20
952.86666666665951
 11
715.0086811994754
 21
952.86666666665951
  0
LINE
  8
_0-0_0
  6
CONTINUOUS
 62
    7
 10
878.30868119947354
 20
949.31666666665819
 11
715.0086811994754
 21
949.31666666666104
  0
LINE
  8
_0-0_0
  6
CONTINUOUS
 62
    7
 10
874.75868119947222
 20
945.76666666665972
 11
715.0086811994754
 21
945.76666666665972
  0
LINE
  8
_0-0_0
  6
CONTINUOUS
 62
    7
 10
871.2086811994709
 20
942.21666666666124
 11
715.0086811994754
 21
942.21666666666124
  0
LINE
  8
_0-0_0
  6
CONTINUOUS
 62
    7
 10
867.65868119946958
 20
938.66666666665992
 11
715.0086811994754
 21
938.66666666665992
  0
LINE
  8
_0-0_0
  6
CONTINUOUS
 62
    7
 10
864.10868119946826
 20
935.1166666666586
 11
715.0086811994754
 21
935.11666666666144
  0
LINE
  8
_0-0_0
  6
CONTINUOUS
 62
    7
 10
860.55868119947263
 20
931.56666666666013
 11
715.0086811994754
 21
931.56666666666013
  0
LINE
  8
_0-0_0
  6
CONTINUOUS
 62
    7
 10
857.00868119947131
 20
928.01666666666165
 11
715.0086811994754
 21
928.01666666666165
  0
LINE
  8
_0-0_0
  6
CONTINUOUS
 62
    7
 10
853.45868119946999
 20
924.46666666666033
 11
715.0086811994754
 21
924.46666666666033
  0
LINE
  8
_0-0_0
  6
CONTINUOUS
 62
    7
 10
849.90868119947436
 20
920.91666666665901
 11
715.0086811994754
 21
920.91666666665901
  0
LINE
  8
_0-0_0
  6
CONTINUOUS
 62
    7
 10
846.35868119947304
 20
917.36666666666338
 11
715.0086811994754
 21
917.36666666666338
  0
LINE
  8
_0-0_0
  6
CONTINUOUS
 62
    7
 10
842.80868119947172
 20
913.81666666666206
 11
715.0086811994754
 21
913.81666666666206
  0
LINE
  8
_0-0_0
  6
CONTINUOUS
 62
    7
 10
839.2586811994704
 20
910.26666666666074
 11
715.0086811994754
 21
910.26666666666074
  0
LINE
  8
_0-0_0
  6
CONTINUOUS
 62
    7
 10
835.70868119946908
 20
906.71666666665942
 11
715.0086811994754
 21
906.71666666665942
  0
LINE
  8
_0-0_0
  6
CONTINUOUS
 62
    7
 10
832.15868119947345
 20
903.16666666666094
 11
715.0086811994754
 21
903.16666666666094
  0
LINE
  8
_0-0_0
  6
CONTINUOUS
 62
    7
 10
828.60868119947213
 20
899.61666666666247
 11
715.0086811994754
 21
899.61666666666247
  0
LINE
  8
_0-0_0
  6
CONTINUOUS
 62
    7
 10
825.05868119947081
 20
896.06666666665831
 11
715.0086811994754
 21
896.06666666666115
  0
LINE
  8
_0-0_0
  6
CONTINUOUS
 62
    7
 10
821.50868119947518
 20
892.51666666665983
 11
715.0086811994754
 21
892.51666666665983
  0
LINE
  8
_0-0_0
  6
CONTINUOUS
 62
    7
 10
845.19366413944681
 20
1070.0166666666605
 11
715.0086811994754
 21
1070.0166666666605
  0
LINE
  8
_0-0_0
  6
CONTINUOUS
 62
    7
 10
846.43113562883059
 20
1066.466666666659
 11
715.0086811994754
 21
1066.4666666666619
  0
LINE
  8
_0-0_0
  6
CONTINUOUS
 62
    7
 10
847.75392386763428
 20
1062.9166666666579
 11
715.0086811994754
 21
1062.9166666666606
  0
LINE
  8
_0-0_0
  6
CONTINUOUS
 62
    7
 10
849.16409063847027
 20
1059.3666666666593
 11
715.0086811994754
 21
1059.3666666666622
  0
LINE
  8
_0-0_0
  6
CONTINUOUS
 62
    7
 10
850.66390778280834
 20
1055.816666666658
 11
715.0086811994754
 21
1055.8166666666607
  0
LINE
  8
_0-0_0
  6
CONTINUOUS
 62
    7
 10
852.25587888929226
 20
1052.2666666666596
 11
715.0086811994754
 21
1052.2666666666596
  0
LINE
  8
_0-0_0
  6
CONTINUOUS
 62
    7
 10
853.94276448700452
 20
1048.716666666661
 11
715.0086811994754
 21
1048.716666666661
  0
LINE
  8
_0-0_0
  6
CONTINUOUS
 62
    7
 10
855.72761142002491
 20
1045.1666666666597
 11
715.0086811994754
 21
1045.1666666666597
  0
LINE
  8
_0-0_0
  6
CONTINUOUS
 62
    7
 10
857.61378724361066
 20
1041.6166666666584
 11
715.0086811994754
 21
1041.6166666666613
  0
LINE
  8
_0-0_0
  6
CONTINUOUS
 62
    7
 10
859.60502069463587
 20
1038.0666666666571
 11
715.0086811994754
 21
1038.0666666666627
  0
LINE
  8
_0-0_0
  6
CONTINUOUS
 62
    7
 10
861.70544956424351
 20
1034.5166666666614
 11
715.0086811994754
 21
1034.5166666666614
  0
LINE
  8
_0-0_0
  6
CONTINUOUS
 62
    7
 10
863.91967766328435
 20
1030.9666666666601
 11
715.0086811994754
 21
1030.9666666666601
  0
LINE
  8
_0-0_0
  6
CONTINUOUS
 62
    7
 10
866.25284305200125
 20
1027.4166666666588
 11
715.0086811994754
 21
1027.4166666666588
  0
LINE
  8
_0-0_0
  6
CONTINUOUS
 62
    7
 10
868.71070035194862
 20
1023.8666666666575
 11
715.0086811994754
 21
1023.8666666666631
  0
LINE
  8
_0-0_0
  6
CONTINUOUS
 62
    7
 10
871.29972083708935
 20
1020.316666666659
 11
715.0086811994754
 21
1020.3166666666618
  0
LINE
  8
_0-0_0
  6
CONTINUOUS
 62
    7
 10
874.02721521254989
 20
1016.7666666666605
 11
715.0086811994754
 21
1016.7666666666605
  0
LINE
  8
_0-0_0
  6
CONTINUOUS
 62
    7
 10
876.90148568427162
 20
1013.2166666666592
 11
715.0086811994754
 21
1013.2166666666592
  0
LINE
  8
_0-0_0
  6
CONTINUOUS
 62
    7
 10
879.93201633133822
 20
1009.6666666666579
 11
715.0086811994754
 21
1009.6666666666607
  0
LINE
  8
_0-0_0
  6
CONTINUOUS
 62
    7
 10
883.12971427696993
 20
1006.1166666666594
 11
715.0086811994754
 21
1006.1166666666622
  0
LINE
  8
_0-0_0
  6
CONTINUOUS
 62
    7
 10
886.50721929411702
 20
1002.5666666666581
 11
715.0086811994754
 21
1002.5666666666609
  0
LINE
  8
_0-0_0
  6
CONTINUOUS
 62
    7
 10
890.07930723009849
 20
999.0166666666596
 11
715.0086811994754
 21
999.0166666666596
  0
LINE
  8
_0-0_0
  6
CONTINUOUS
 62
    7
 10
893.86342460480819
 20
995.46666666665828
 11
715.0086811994754
 21
995.46666666666113
  0
LINE
  8
_0-0_0
  6
CONTINUOUS
 62
    7
 10
897.88041074340867
 20
991.91666666665697
 11
715.0086811994754
 21
991.91666666665981
  0
LINE
  8
_0-0_0
  6
CONTINUOUS
 62
    7
 10
902.15549494342895
 20
988.36666666666133
 11
715.0086811994754
 21
988.36666666666133
  0
LINE
  8
_0-0_0
  6
CONTINUOUS
 62
    7
 10
906.71970906042816
 20
984.81666666666001
 11
715.0086811994754
 21
984.81666666666001
  0
LINE
  8
_0-0_0
  6
CONTINUOUS
 62
    7
 10
910.25868119947404
 20
981.26666666665869
 11
715.0086811994754
 21
981.26666666665869
  0
LINE
  8
_0-0_0
  6
CONTINUOUS
 62
    7
 10
906.70868119947272
 20
977.71666666665737
 11
715.0086811994754
 21
977.71666666666306
  0
LINE
  8
_0-0_0
  6
CONTINUOUS
 62
    7
 10
903.1586811994714
 20
974.16666666666174
 11
715.0086811994754
 21
974.16666666666174
  0
LINE
  8
_0-0_0
  6
CONTINUOUS
 62
    7
 10
899.60868119947577
 20
970.61666666666042
 11
715.0086811994754
 21
970.61666666666042
  0
LINE
  8
_0-0_0
  6
CONTINUOUS
 62
    7
 10
896.05868119947445
 20
967.0666666666591
 11
715.0086811994754
 21
967.0666666666591
  0
LINE
  8
_0-0_0
  6
CONTINUOUS
 62
    7
 10
892.50868119947313
 20
963.51666666666063
 11
715.0086811994754
 21
963.51666666666063
  0
LINE
  8
_0-0_0
  6
CONTINUOUS
 62
    7
 10
888.95868119947181
 20
959.96666666666215
 11
715.0086811994754
 21
959.96666666666215
  0
LINE
  8
_0-0_0
  6
CONTINUOUS
 62
    7
 10
885.40868119947618
 20
956.41666666666083
 11
715.0086811994754
 21
956.41666666666083
  0
LINE
  8
_0-0_0
  6
CONTINUOUS
 62
    7
 10
881.85868119946917
 20
952.86666666665951
 11
715.0086811994754
 21
952.86666666665951
  0
LINE
  8
_0-0_0
  6
CONTINUOUS
 62
    7
 10
878.30868119947354
 20
949.31666666665819
 11
715.0086811994754
 21
949.31666666666104
  0
LINE
  8
_0-0_0
  6
CONTINUOUS
 62
    7
 10
874.75868119947222
 20
945.76666666665972
 11
715.0086811994754
 21
945.76666666665972
  0
LINE
  8
_0-0_0
  6
CONTINUOUS
 62
    7
 10
871.2086811994709
 20
942.21666666666124
 11
715.0086811994754
 21
942.21666666666124
  0
LINE
  8
_0-0_0
  6
CONTINUOUS
 62
    7
 10
867.65868119946958
 20
938.66666666665992
 11
715.0086811994754
 21
938.66666666665992
  0
LINE
  8
_0-0_0
  6
CONTINUOUS
 62
    7
 10
864.10868119946826
 20
935.1166666666586
 11
715.0086811994754
 21
935.11666666666144
  0
LINE
  8
_0-0_0
  6
CONTINUOUS
 62
    7
 10
860.55868119947263
 20
931.56666666666013
 11
715.0086811994754
 21
931.56666666666013
  0
LINE
  8
_0-0_0
  6
CONTINUOUS
 62
    7
 10
857.00868119947131
 20
928.01666666666165
 11
715.0086811994754
 21
928.01666666666165
  0
LINE
  8
_0-0_0
  6
CONTINUOUS
 62
    7
 10
853.45868119946999
 20
924.46666666666033
 11
715.0086811994754
 21
924.46666666666033
  0
LINE
  8
_0-0_0
  6
CONTINUOUS
 62
    7
 10
849.90868119947436
 20
920.91666666665901
 11
715.0086811994754
 21
920.91666666665901
  0
LINE
  8
_0-0_0
  6
CONTINUOUS
 62
    7
 10
846.35868119947304
 20
917.36666666666338
 11
715.0086811994754
 21
917.36666666666338
  0
LINE
  8
_0-0_0
  6
CONTINUOUS
 62
    7
 10
842.80868119947172
 20
913.81666666666206
 11
715.0086811994754
 21
913.81666666666206
  0
LINE
  8
_0-0_0
  6
CONTINUOUS
 62
    7
 10
839.2586811994704
 20
910.26666666666074
 11
715.0086811994754
 21
910.26666666666074
  0
LINE
  8
_0-0_0
  6
CONTINUOUS
 62
    7
 10
835.70868119946908
 20
906.71666666665942
 11
715.0086811994754
 21
906.71666666665942
  0
LINE
  8
_0-0_0
  6
CONTINUOUS
 62
    7
 10
832.15868119947345
 20
903.16666666666094
 11
715.0086811994754
 21
903.16666666666094
  0
LINE
  8
_0-0_0
  6
CONTINUOUS
 62
    7
 10
828.60868119947213
 20
899.61666666666247
 11
715.0086811994754
 21
899.61666666666247
  0
LINE
  8
_0-0_0
  6
CONTINUOUS
 62
    7
 10
825.05868119947081
 20
896.06666666665831
 11
715.0086811994754
 21
896.06666666666115
  0
LINE
  8
_0-0_0
  6
CONTINUOUS
 62
    7
 10
821.50868119947518
 20
892.51666666665983
 11
715.0086811994754
 21
892.51666666665983
  0
LINE
  8
_0-0_0
  6
CONTINUOUS
 62
    7
 10
845.19366413944681
 20
1070.0166666666605
 11
715.0086811994754
 21
1070.0166666666605
  0
LINE
  8
_0-0_0
  6
CONTINUOUS
 62
    7
 10
846.43113562883059
 20
1066.466666666659
 11
715.0086811994754
 21
1066.4666666666619
  0
LINE
  8
_0-0_0
  6
CONTINUOUS
 62
    7
 10
847.75392386763428
 20
1062.9166666666579
 11
715.0086811994754
 21
1062.9166666666606
  0
LINE
  8
_0-0_0
  6
CONTINUOUS
 62
    7
 10
849.16409063847027
 20
1059.3666666666593
 11
715.0086811994754
 21
1059.3666666666622
  0
LINE
  8
_0-0_0
  6
CONTINUOUS
 62
    7
 10
850.66390778280834
 20
1055.816666666658
 11
715.0086811994754
 21
1055.8166666666607
  0
LINE
  8
_0-0_0
  6
CONTINUOUS
 62
    7
 10
852.25587888929226
 20
1052.2666666666596
 11
715.0086811994754
 21
1052.2666666666596
  0
LINE
  8
_0-0_0
  6
CONTINUOUS
 62
    7
 10
853.94276448700452
 20
1048.716666666661
 11
715.0086811994754
 21
1048.716666666661
  0
LINE
  8
_0-0_0
  6
CONTINUOUS
 62
    7
 10
855.72761142002491
 20
1045.1666666666597
 11
715.0086811994754
 21
1045.1666666666597
  0
LINE
  8
_0-0_0
  6
CONTINUOUS
 62
    7
 10
857.61378724361066
 20
1041.6166666666584
 11
715.0086811994754
 21
1041.6166666666613
  0
LINE
  8
_0-0_0
  6
CONTINUOUS
 62
    7
 10
859.60502069463587
 20
1038.0666666666571
 11
715.0086811994754
 21
1038.0666666666627
  0
LINE
  8
_0-0_0
  6
CONTINUOUS
 62
    7
 10
861.70544956424351
 20
1034.5166666666614
 11
715.0086811994754
 21
1034.5166666666614
  0
LINE
  8
_0-0_0
  6
CONTINUOUS
 62
    7
 10
863.91967766328435
 20
1030.9666666666601
 11
715.0086811994754
 21
1030.9666666666601
  0
LINE
  8
_0-0_0
  6
CONTINUOUS
 62
    7
 10
866.25284305200125
 20
1027.4166666666588
 11
715.0086811994754
 21
1027.4166666666588
  0
LINE
  8
_0-0_0
  6
CONTINUOUS
 62
    7
 10
868.71070035194862
 20
1023.8666666666575
 11
715.0086811994754
 21
1023.8666666666631
  0
LINE
  8
_0-0_0
  6
CONTINUOUS
 62
    7
 10
871.29972083708935
 20
1020.316666666659
 11
715.0086811994754
 21
1020.3166666666618
  0
LINE
  8
_0-0_0
  6
CONTINUOUS
 62
    7
 10
874.02721521254989
 20
1016.7666666666605
 11
715.0086811994754
 21
1016.7666666666605
  0
LINE
  8
_0-0_0
  6
CONTINUOUS
 62
    7
 10
876.90148568427162
 20
1013.2166666666592
 11
715.0086811994754
 21
1013.2166666666592
  0
LINE
  8
_0-0_0
  6
CONTINUOUS
 62
    7
 10
879.93201633133822
 20
1009.6666666666579
 11
715.0086811994754
 21
1009.6666666666607
  0
LINE
  8
_0-0_0
  6
CONTINUOUS
 62
    7
 10
883.12971427696993
 20
1006.1166666666594
 11
715.0086811994754
 21
1006.1166666666622
  0
LINE
  8
_0-0_0
  6
CONTINUOUS
 62
    7
 10
886.50721929411702
 20
1002.5666666666581
 11
715.0086811994754
 21
1002.5666666666609
  0
LINE
  8
_0-0_0
  6
CONTINUOUS
 62
    7
 10
890.07930723009849
 20
999.0166666666596
 11
715.0086811994754
 21
999.0166666666596
  0
LINE
  8
_0-0_0
  6
CONTINUOUS
 62
    7
 10
893.86342460480819
 20
995.46666666665828
 11
715.0086811994754
 21
995.46666666666113
  0
LINE
  8
_0-0_0
  6
CONTINUOUS
 62
    7
 10
897.88041074340867
 20
991.91666666665697
 11
715.0086811994754
 21
991.91666666665981
  0
LINE
  8
_0-0_0
  6
CONTINUOUS
 62
    7
 10
902.15549494342895
 20
988.36666666666133
 11
715.0086811994754
 21
988.36666666666133
  0
LINE
  8
_0-0_0
  6
CONTINUOUS
 62
    7
 10
906.71970906042816
 20
984.81666666666001
 11
715.0086811994754
 21
984.81666666666001
  0
LINE
  8
_0-0_0
  6
CONTINUOUS
 62
    7
 10
910.25868119947404
 20
981.26666666665869
 11
715.0086811994754
 21
981.26666666665869
  0
LINE
  8
_0-0_0
  6
CONTINUOUS
 62
    7
 10
906.70868119947272
 20
977.71666666665737
 11
715.0086811994754
 21
977.71666666666306
  0
LINE
  8
_0-0_0
  6
CONTINUOUS
 62
    7
 10
903.1586811994714
 20
974.16666666666174
 11
715.0086811994754
 21
974.16666666666174
  0
LINE
  8
_0-0_0
  6
CONTINUOUS
 62
    7
 10
899.60868119947577
 20
970.61666666666042
 11
715.0086811994754
 21
970.61666666666042
  0
LINE
  8
_0-0_0
  6
CONTINUOUS
 62
    7
 10
896.05868119947445
 20
967.0666666666591
 11
715.0086811994754
 21
967.0666666666591
  0
LINE
  8
_0-0_0
  6
CONTINUOUS
 62
    7
 10
892.50868119947313
 20
963.51666666666063
 11
715.0086811994754
 21
963.51666666666063
  0
LINE
  8
_0-0_0
  6
CONTINUOUS
 62
    7
 10
888.95868119947181
 20
959.96666666666215
 11
715.0086811994754
 21
959.96666666666215
  0
LINE
  8
_0-0_0
  6
CONTINUOUS
 62
    7
 10
885.40868119947618
 20
956.41666666666083
 11
715.0086811994754
 21
956.41666666666083
  0
LINE
  8
_0-0_0
  6
CONTINUOUS
 62
    7
 10
881.85868119946917
 20
952.86666666665951
 11
715.0086811994754
 21
952.86666666665951
  0
LINE
  8
_0-0_0
  6
CONTINUOUS
 62
    7
 10
878.30868119947354
 20
949.31666666665819
 11
715.0086811994754
 21
949.31666666666104
  0
LINE
  8
_0-0_0
  6
CONTINUOUS
 62
    7
 10
874.75868119947222
 20
945.76666666665972
 11
715.0086811994754
 21
945.76666666665972
  0
LINE
  8
_0-0_0
  6
CONTINUOUS
 62
    7
 10
871.2086811994709
 20
942.21666666666124
 11
715.0086811994754
 21
942.21666666666124
  0
LINE
  8
_0-0_0
  6
CONTINUOUS
 62
    7
 10
867.65868119946958
 20
938.66666666665992
 11
715.0086811994754
 21
938.66666666665992
  0
LINE
  8
_0-0_0
  6
CONTINUOUS
 62
    7
 10
864.10868119946826
 20
935.1166666666586
 11
715.0086811994754
 21
935.11666666666144
  0
LINE
  8
_0-0_0
  6
CONTINUOUS
 62
    7
 10
860.55868119947263
 20
931.56666666666013
 11
715.0086811994754
 21
931.56666666666013
  0
LINE
  8
_0-0_0
  6
CONTINUOUS
 62
    7
 10
857.00868119947131
 20
928.01666666666165
 11
715.0086811994754
 21
928.01666666666165
  0
LINE
  8
_0-0_0
  6
CONTINUOUS
 62
    7
 10
853.45868119946999
 20
924.46666666666033
 11
715.0086811994754
 21
924.46666666666033
  0
LINE
  8
_0-0_0
  6
CONTINUOUS
 62
    7
 10
849.90868119947436
 20
920.91666666665901
 11
715.0086811994754
 21
920.91666666665901
  0
LINE
  8
_0-0_0
  6
CONTINUOUS
 62
    7
 10
846.35868119947304
 20
917.36666666666338
 11
715.0086811994754
 21
917.36666666666338
  0
LINE
  8
_0-0_0
  6
CONTINUOUS
 62
    7
 10
842.80868119947172
 20
913.81666666666206
 11
715.0086811994754
 21
913.81666666666206
  0
LINE
  8
_0-0_0
  6
CONTINUOUS
 62
    7
 10
839.2586811994704
 20
910.26666666666074
 11
715.0086811994754
 21
910.26666666666074
  0
LINE
  8
_0-0_0
  6
CONTINUOUS
 62
    7
 10
835.70868119946908
 20
906.71666666665942
 11
715.0086811994754
 21
906.71666666665942
  0
LINE
  8
_0-0_0
  6
CONTINUOUS
 62
    7
 10
832.15868119947345
 20
903.16666666666094
 11
715.0086811994754
 21
903.16666666666094
  0
LINE
  8
_0-0_0
  6
CONTINUOUS
 62
    7
 10
828.60868119947213
 20
899.61666666666247
 11
715.0086811994754
 21
899.61666666666247
  0
LINE
  8
_0-0_0
  6
CONTINUOUS
 62
    7
 10
825.05868119947081
 20
896.06666666665831
 11
715.0086811994754
 21
896.06666666666115
  0
LINE
  8
_0-0_0
  6
CONTINUOUS
 62
    7
 10
821.50868119947518
 20
892.51666666665983
 11
715.0086811994754
 21
892.51666666665983
  0
LINE
  8
_0-0_0
  6
CONTINUOUS
 62
    7
 10
817.95868119947386
 20
888.96666666666135
 11
715.0086811994754
 21
888.96666666666135
  0
LINE
  8
_0-0_0
  6
CONTINUOUS
 62
    7
 10
814.40868119947254
 20
885.41666666666003
 11
715.0086811994754
 21
885.41666666666003
  0
LINE
  8
_0-0_0
  6
CONTINUOUS
 62
    7
 10
810.85868119947122
 20
881.86666666666156
 11
715.0086811994754
 21
881.86666666666156
  0
LINE
  8
_0-0_0
  6
CONTINUOUS
 62
    7
 10
807.3086811994699
 20
878.31666666666024
 11
715.0086811994754
 21
878.31666666666024
  0
LINE
  8
_0-0_0
  6
CONTINUOUS
 62
    7
 10
803.75868119947427
 20
874.76666666665892
 11
715.0086811994754
 21
874.76666666665892
  0
LINE
  8
_0-0_0
  6
CONTINUOUS
 62
    7
 10
800.20868119947295
 20
871.21666666666044
 11
715.0086811994754
 21
871.21666666666044
  0
LINE
  8
_0-0_0
  6
CONTINUOUS
 62
    7
 10
796.65868119947163
 20
867.66666666665628
 11
715.0086811994754
 21
867.66666666666197
  0
LINE
  8
_0-0_0
  6
CONTINUOUS
 62
    7
 10
793.10868119947031
 20
864.11666666666065
 11
715.0086811994754
 21
864.11666666666065
  0
LINE
  8
_0-0_0
  6
CONTINUOUS
 62
    7
 10
789.55868119947468
 20
860.56666666665933
 11
715.0086811994754
 21
860.56666666665933
  0
LINE
  8
_0-0_0
  6
CONTINUOUS
 62
    7
 10
786.00868119947336
 20
857.01666666665801
 11
715.0086811994754
 21
857.01666666665801
  0
LINE
  8
_0-0_0
  6
CONTINUOUS
 62
    7
 10
782.45868119947204
 20
853.46666666665953
 11
715.0086811994754
 21
853.46666666666238
  0
LINE
  8
_0-0_0
  6
CONTINUOUS
 62
    7
 10
778.90868119947072
 20
849.91666666665822
 11
715.0086811994754
 21
849.91666666666106
  0
LINE
  8
_0-0_0
  6
CONTINUOUS
 62
    7
 10
775.3586811994694
 20
846.36666666665974
 11
715.0086811994754
 21
846.36666666665974
  0
LINE
  8
_0-0_0
  6
CONTINUOUS
 62
    7
 10
771.80868119947377
 20
842.81666666666126
 11
715.0086811994754
 21
842.81666666666126
  0
LINE
  8
_0-0_0
  6
CONTINUOUS
 62
    7
 10
768.25868119947245
 20
839.26666666665994
 11
715.0086811994754
 21
839.26666666665994
  0
LINE
  8
_0-0_0
  6
CONTINUOUS
 62
    7
 10
764.70868119947113
 20
835.71666666665863
 11
715.0086811994754
 21
835.71666666666147
  0
LINE
  8
_0-0_0
  6
CONTINUOUS
 62
    7
 10
761.1586811994755
 20
832.16666666666015
 11
715.0086811994754
 21
832.16666666666015
  0
LINE
  8
_0-0_0
  6
CONTINUOUS
 62
    7
 10
757.60868119947418
 20
828.61666666666167
 11
715.0086811994754
 21
828.61666666666167
  0
LINE
  8
_0-0_0
  6
CONTINUOUS
 62
    7
 10
754.05868119947286
 20
825.06666666665751
 11
715.0086811994754
 21
825.06666666666035
  0
LINE
  8
_0-0_0
  6
CONTINUOUS
 62
    7
 10
750.50868119947154
 20
821.51666666666188
 11
715.0086811994754
 21
821.51666666666188
  0
LINE
  8
_0-0_0
  6
CONTINUOUS
 62
    7
 10
746.95868119947022
 20
817.96666666666056
 11
715.0086811994754
 21
817.96666666666056
  0
LINE
  8
_0-0_0
  6
CONTINUOUS
 62
    7
 10
743.40868119947459
 20
814.41666666665924
 11
715.0086811994754
 21
814.41666666665924
  0
LINE
  8
_0-0_0
  6
CONTINUOUS
 62
    7
 10
739.85868119947327
 20
810.86666666665792
 11
715.0086811994754
 21
810.8666666666636
  0
LINE
  8
_0-0_0
  6
CONTINUOUS
 62
    7
 10
736.30868119947195
 20
807.31666666665944
 11
715.0086811994754
 21
807.31666666666229
  0
LINE
  8
_0-0_0
  6
CONTINUOUS
 62
    7
 10
732.75868119947063
 20
803.76666666666097
 11
715.0086811994754
 21
803.76666666666097
  0
LINE
  8
_0-0_0
  6
CONTINUOUS
 62
    7
 10
729.208681199475
 20
800.21666666665965
 11
715.0086811994754
 21
800.21666666665965
  0
LINE
  8
_0-0_0
  6
CONTINUOUS
 62
    7
 10
725.65868119947368
 20
796.66666666665833
 11
715.0086811994754
 21
796.66666666665833
  0
LINE
  8
_0-0_0
  6
CONTINUOUS
 62
    7
 10
722.10868119947236
 20
793.11666666665985
 11
715.0086811994754
 21
793.1166666666627
  0
LINE
  8
_0-0_0
  6
CONTINUOUS
 62
    7
 10
718.55868119947104
 20
789.56666666665853
 11
715.0086811994754
 21
789.56666666666138
  0
LINE
  8
_0-0_0
  6
CONTINUOUS
 62
    7
 10
817.95868119947386
 20
888.96666666666135
 11
715.0086811994754
 21
888.96666666666135
  0
LINE
  8
_0-0_0
  6
CONTINUOUS
 62
    7
 10
814.40868119947254
 20
885.41666666666003
 11
715.0086811994754
 21
885.41666666666003
  0
LINE
  8
_0-0_0
  6
CONTINUOUS
 62
    7
 10
810.85868119947122
 20
881.86666666666156
 11
715.0086811994754
 21
881.86666666666156
  0
LINE
  8
_0-0_0
  6
CONTINUOUS
 62
    7
 10
807.3086811994699
 20
878.31666666666024
 11
715.0086811994754
 21
878.31666666666024
  0
LINE
  8
_0-0_0
  6
CONTINUOUS
 62
    7
 10
803.75868119947427
 20
874.76666666665892
 11
715.0086811994754
 21
874.76666666665892
  0
LINE
  8
_0-0_0
  6
CONTINUOUS
 62
    7
 10
800.20868119947295
 20
871.21666666666044
 11
715.0086811994754
 21
871.21666666666044
  0
LINE
  8
_0-0_0
  6
CONTINUOUS
 62
    7
 10
796.65868119947163
 20
867.66666666665628
 11
715.0086811994754
 21
867.66666666666197
  0
LINE
  8
_0-0_0
  6
CONTINUOUS
 62
    7
 10
793.10868119947031
 20
864.11666666666065
 11
715.0086811994754
 21
864.11666666666065
  0
LINE
  8
_0-0_0
  6
CONTINUOUS
 62
    7
 10
789.55868119947468
 20
860.56666666665933
 11
715.0086811994754
 21
860.56666666665933
  0
LINE
  8
_0-0_0
  6
CONTINUOUS
 62
    7
 10
786.00868119947336
 20
857.01666666665801
 11
715.0086811994754
 21
857.01666666665801
  0
LINE
  8
_0-0_0
  6
CONTINUOUS
 62
    7
 10
782.45868119947204
 20
853.46666666665953
 11
715.0086811994754
 21
853.46666666666238
  0
LINE
  8
_0-0_0
  6
CONTINUOUS
 62
    7
 10
778.90868119947072
 20
849.91666666665822
 11
715.0086811994754
 21
849.91666666666106
  0
LINE
  8
_0-0_0
  6
CONTINUOUS
 62
    7
 10
775.3586811994694
 20
846.36666666665974
 11
715.0086811994754
 21
846.36666666665974
  0
LINE
  8
_0-0_0
  6
CONTINUOUS
 62
    7
 10
771.80868119947377
 20
842.81666666666126
 11
715.0086811994754
 21
842.81666666666126
  0
LINE
  8
_0-0_0
  6
CONTINUOUS
 62
    7
 10
768.25868119947245
 20
839.26666666665994
 11
715.0086811994754
 21
839.26666666665994
  0
LINE
  8
_0-0_0
  6
CONTINUOUS
 62
    7
 10
764.70868119947113
 20
835.71666666665863
 11
715.0086811994754
 21
835.71666666666147
  0
LINE
  8
_0-0_0
  6
CONTINUOUS
 62
    7
 10
761.1586811994755
 20
832.16666666666015
 11
715.0086811994754
 21
832.16666666666015
  0
LINE
  8
_0-0_0
  6
CONTINUOUS
 62
    7
 10
757.60868119947418
 20
828.61666666666167
 11
715.0086811994754
 21
828.61666666666167
  0
LINE
  8
_0-0_0
  6
CONTINUOUS
 62
    7
 10
754.05868119947286
 20
825.06666666665751
 11
715.0086811994754
 21
825.06666666666035
  0
LINE
  8
_0-0_0
  6
CONTINUOUS
 62
    7
 10
750.50868119947154
 20
821.51666666666188
 11
715.0086811994754
 21
821.51666666666188
  0
LINE
  8
_0-0_0
  6
CONTINUOUS
 62
    7
 10
746.95868119947022
 20
817.96666666666056
 11
715.0086811994754
 21
817.96666666666056
  0
LINE
  8
_0-0_0
  6
CONTINUOUS
 62
    7
 10
743.40868119947459
 20
814.41666666665924
 11
715.0086811994754
 21
814.41666666665924
  0
LINE
  8
_0-0_0
  6
CONTINUOUS
 62
    7
 10
739.85868119947327
 20
810.86666666665792
 11
715.0086811994754
 21
810.8666666666636
  0
LINE
  8
_0-0_0
  6
CONTINUOUS
 62
    7
 10
736.30868119947195
 20
807.31666666665944
 11
715.0086811994754
 21
807.31666666666229
  0
LINE
  8
_0-0_0
  6
CONTINUOUS
 62
    7
 10
732.75868119947063
 20
803.76666666666097
 11
715.0086811994754
 21
803.76666666666097
  0
LINE
  8
_0-0_0
  6
CONTINUOUS
 62
    7
 10
729.208681199475
 20
800.21666666665965
 11
715.0086811994754
 21
800.21666666665965
  0
LINE
  8
_0-0_0
  6
CONTINUOUS
 62
    7
 10
725.65868119947368
 20
796.66666666665833
 11
715.0086811994754
 21
796.66666666665833
  0
LINE
  8
_0-0_0
  6
CONTINUOUS
 62
    7
 10
722.10868119947236
 20
793.11666666665985
 11
715.0086811994754
 21
793.1166666666627
  0
LINE
  8
_0-0_0
  6
CONTINUOUS
 62
    7
 10
718.55868119947104
 20
789.56666666665853
 11
715.0086811994754
 21
789.56666666666138
  0
LINE
  8
_0-0_0
  6
CONTINUOUS
 62
    7
 10
817.95868119947386
 20
888.96666666666135
 11
715.0086811994754
 21
888.96666666666135
  0
LINE
  8
_0-0_0
  6
CONTINUOUS
 62
    7
 10
814.40868119947254
 20
885.41666666666003
 11
715.0086811994754
 21
885.41666666666003
  0
LINE
  8
_0-0_0
  6
CONTINUOUS
 62
    7
 10
810.85868119947122
 20
881.86666666666156
 11
715.0086811994754
 21
881.86666666666156
  0
LINE
  8
_0-0_0
  6
CONTINUOUS
 62
    7
 10
807.3086811994699
 20
878.31666666666024
 11
715.0086811994754
 21
878.31666666666024
  0
LINE
  8
_0-0_0
  6
CONTINUOUS
 62
    7
 10
803.75868119947427
 20
874.76666666665892
 11
715.0086811994754
 21
874.76666666665892
  0
LINE
  8
_0-0_0
  6
CONTINUOUS
 62
    7
 10
800.20868119947295
 20
871.21666666666044
 11
715.0086811994754
 21
871.21666666666044
  0
LINE
  8
_0-0_0
  6
CONTINUOUS
 62
    7
 10
796.65868119947163
 20
867.66666666665628
 11
715.0086811994754
 21
867.66666666666197
  0
LINE
  8
_0-0_0
  6
CONTINUOUS
 62
    7
 10
793.10868119947031
 20
864.11666666666065
 11
715.0086811994754
 21
864.11666666666065
  0
LINE
  8
_0-0_0
  6
CONTINUOUS
 62
    7
 10
789.55868119947468
 20
860.56666666665933
 11
715.0086811994754
 21
860.56666666665933
  0
LINE
  8
_0-0_0
  6
CONTINUOUS
 62
    7
 10
786.00868119947336
 20
857.01666666665801
 11
715.0086811994754
 21
857.01666666665801
  0
LINE
  8
_0-0_0
  6
CONTINUOUS
 62
    7
 10
782.45868119947204
 20
853.46666666665953
 11
715.0086811994754
 21
853.46666666666238
  0
LINE
  8
_0-0_0
  6
CONTINUOUS
 62
    7
 10
778.90868119947072
 20
849.91666666665822
 11
715.0086811994754
 21
849.91666666666106
  0
LINE
  8
_0-0_0
  6
CONTINUOUS
 62
    7
 10
775.3586811994694
 20
846.36666666665974
 11
715.0086811994754
 21
846.36666666665974
  0
LINE
  8
_0-0_0
  6
CONTINUOUS
 62
    7
 10
771.80868119947377
 20
842.81666666666126
 11
715.0086811994754
 21
842.81666666666126
  0
LINE
  8
_0-0_0
  6
CONTINUOUS
 62
    7
 10
768.25868119947245
 20
839.26666666665994
 11
715.0086811994754
 21
839.26666666665994
  0
LINE
  8
_0-0_0
  6
CONTINUOUS
 62
    7
 10
764.70868119947113
 20
835.71666666665863
 11
715.0086811994754
 21
835.71666666666147
  0
LINE
  8
_0-0_0
  6
CONTINUOUS
 62
    7
 10
761.1586811994755
 20
832.16666666666015
 11
715.0086811994754
 21
832.16666666666015
  0
LINE
  8
_0-0_0
  6
CONTINUOUS
 62
    7
 10
757.60868119947418
 20
828.61666666666167
 11
715.0086811994754
 21
828.61666666666167
  0
LINE
  8
_0-0_0
  6
CONTINUOUS
 62
    7
 10
754.05868119947286
 20
825.06666666665751
 11
715.0086811994754
 21
825.06666666666035
  0
LINE
  8
_0-0_0
  6
CONTINUOUS
 62
    7
 10
750.50868119947154
 20
821.51666666666188
 11
715.0086811994754
 21
821.51666666666188
  0
LINE
  8
_0-0_0
  6
CONTINUOUS
 62
    7
 10
746.95868119947022
 20
817.96666666666056
 11
715.0086811994754
 21
817.96666666666056
  0
LINE
  8
_0-0_0
  6
CONTINUOUS
 62
    7
 10
743.40868119947459
 20
814.41666666665924
 11
715.0086811994754
 21
814.41666666665924
  0
LINE
  8
_0-0_0
  6
CONTINUOUS
 62
    7
 10
739.85868119947327
 20
810.86666666665792
 11
715.0086811994754
 21
810.8666666666636
  0
LINE
  8
_0-0_0
  6
CONTINUOUS
 62
    7
 10
736.30868119947195
 20
807.31666666665944
 11
715.0086811994754
 21
807.31666666666229
  0
LINE
  8
_0-0_0
  6
CONTINUOUS
 62
    7
 10
732.75868119947063
 20
803.76666666666097
 11
715.0086811994754
 21
803.76666666666097
  0
LINE
  8
_0-0_0
  6
CONTINUOUS
 62
    7
 10
729.208681199475
 20
800.21666666665965
 11
715.0086811994754
 21
800.21666666665965
  0
LINE
  8
_0-0_0
  6
CONTINUOUS
 62
    7
 10
725.65868119947368
 20
796.66666666665833
 11
715.0086811994754
 21
796.66666666665833
  0
LINE
  8
_0-0_0
  6
CONTINUOUS
 62
    7
 10
722.10868119947236
 20
793.11666666665985
 11
715.0086811994754
 21
793.1166666666627
  0
LINE
  8
_0-0_0
  6
CONTINUOUS
 62
    7
 10
718.55868119947104
 20
789.56666666665853
 11
715.0086811994754
 21
789.56666666666138
  0
LINE
  8
_0-0_0
  6
CONTINUOUS
 62
    7
 10
817.95868119947386
 20
888.96666666666135
 11
715.0086811994754
 21
888.96666666666135
  0
LINE
  8
_0-0_0
  6
CONTINUOUS
 62
    7
 10
814.40868119947254
 20
885.41666666666003
 11
715.0086811994754
 21
885.41666666666003
  0
LINE
  8
_0-0_0
  6
CONTINUOUS
 62
    7
 10
810.85868119947122
 20
881.86666666666156
 11
715.0086811994754
 21
881.86666666666156
  0
LINE
  8
_0-0_0
  6
CONTINUOUS
 62
    7
 10
807.3086811994699
 20
878.31666666666024
 11
715.0086811994754
 21
878.31666666666024
  0
LINE
  8
_0-0_0
  6
CONTINUOUS
 62
    7
 10
803.75868119947427
 20
874.76666666665892
 11
715.0086811994754
 21
874.76666666665892
  0
LINE
  8
_0-0_0
  6
CONTINUOUS
 62
    7
 10
800.20868119947295
 20
871.21666666666044
 11
715.0086811994754
 21
871.21666666666044
  0
LINE
  8
_0-0_0
  6
CONTINUOUS
 62
    7
 10
796.65868119947163
 20
867.66666666665628
 11
715.0086811994754
 21
867.66666666666197
  0
LINE
  8
_0-0_0
  6
CONTINUOUS
 62
    7
 10
793.10868119947031
 20
864.11666666666065
 11
715.0086811994754
 21
864.11666666666065
  0
LINE
  8
_0-0_0
  6
CONTINUOUS
 62
    7
 10
789.55868119947468
 20
860.56666666665933
 11
715.0086811994754
 21
860.56666666665933
  0
LINE
  8
_0-0_0
  6
CONTINUOUS
 62
    7
 10
786.00868119947336
 20
857.01666666665801
 11
715.0086811994754
 21
857.01666666665801
  0
LINE
  8
_0-0_0
  6
CONTINUOUS
 62
    7
 10
782.45868119947204
 20
853.46666666665953
 11
715.0086811994754
 21
853.46666666666238
  0
LINE
  8
_0-0_0
  6
CONTINUOUS
 62
    7
 10
778.90868119947072
 20
849.91666666665822
 11
715.0086811994754
 21
849.91666666666106
  0
LINE
  8
_0-0_0
  6
CONTINUOUS
 62
    7
 10
775.3586811994694
 20
846.36666666665974
 11
715.0086811994754
 21
846.36666666665974
  0
LINE
  8
_0-0_0
  6
CONTINUOUS
 62
    7
 10
771.80868119947377
 20
842.81666666666126
 11
715.0086811994754
 21
842.81666666666126
  0
LINE
  8
_0-0_0
  6
CONTINUOUS
 62
    7
 10
768.25868119947245
 20
839.26666666665994
 11
715.0086811994754
 21
839.26666666665994
  0
LINE
  8
_0-0_0
  6
CONTINUOUS
 62
    7
 10
764.70868119947113
 20
835.71666666665863
 11
715.0086811994754
 21
835.71666666666147
  0
LINE
  8
_0-0_0
  6
CONTINUOUS
 62
    7
 10
761.1586811994755
 20
832.16666666666015
 11
715.0086811994754
 21
832.16666666666015
  0
LINE
  8
_0-0_0
  6
CONTINUOUS
 62
    7
 10
757.60868119947418
 20
828.61666666666167
 11
715.0086811994754
 21
828.61666666666167
  0
LINE
  8
_0-0_0
  6
CONTINUOUS
 62
    7
 10
754.05868119947286
 20
825.06666666665751
 11
715.0086811994754
 21
825.06666666666035
  0
LINE
  8
_0-0_0
  6
CONTINUOUS
 62
    7
 10
750.50868119947154
 20
821.51666666666188
 11
715.0086811994754
 21
821.51666666666188
  0
LINE
  8
_0-0_0
  6
CONTINUOUS
 62
    7
 10
746.95868119947022
 20
817.96666666666056
 11
715.0086811994754
 21
817.96666666666056
  0
LINE
  8
_0-0_0
  6
CONTINUOUS
 62
    7
 10
743.40868119947459
 20
814.41666666665924
 11
715.0086811994754
 21
814.41666666665924
  0
LINE
  8
_0-0_0
  6
CONTINUOUS
 62
    7
 10
739.85868119947327
 20
810.86666666665792
 11
715.0086811994754
 21
810.8666666666636
  0
LINE
  8
_0-0_0
  6
CONTINUOUS
 62
    7
 10
736.30868119947195
 20
807.31666666665944
 11
715.0086811994754
 21
807.31666666666229
  0
LINE
  8
_0-0_0
  6
CONTINUOUS
 62
    7
 10
732.75868119947063
 20
803.76666666666097
 11
715.0086811994754
 21
803.76666666666097
  0
LINE
  8
_0-0_0
  6
CONTINUOUS
 62
    7
 10
729.208681199475
 20
800.21666666665965
 11
715.0086811994754
 21
800.21666666665965
  0
LINE
  8
_0-0_0
  6
CONTINUOUS
 62
    7
 10
725.65868119947368
 20
796.66666666665833
 11
715.0086811994754
 21
796.66666666665833
  0
LINE
  8
_0-0_0
  6
CONTINUOUS
 62
    7
 10
722.10868119947236
 20
793.11666666665985
 11
715.0086811994754
 21
793.1166666666627
  0
LINE
  8
_0-0_0
  6
CONTINUOUS
 62
    7
 10
718.55868119947104
 20
789.56666666665853
 11
715.0086811994754
 21
789.56666666666138
  0
LINE
  8
_0-0_0
  6
CONTINUOUS
 62
    7
 10
3437.8519768100887
 20
1583.86930241345
 11
3281.49751536954
 21
1313.0554312083432
  0
LINE
  8
_0-0_0
  6
CONTINUOUS
 62
    7
 10
3281.49751536954
 20
1313.0554312083432
 11
3594.2064382506433
 21
1313.0554312083432
  0
LINE
  8
_0-0_0
  6
CONTINUOUS
 62
    7
 10
3594.2064382506433
 20
1313.0554312083432
 11
3437.8519768100887
 21
1583.86930241345
  0
LINE
  8
_0-0_0
  6
STYLE_01
 62
    7
 10
3721.8519768100919
 20
1626.4693024134544
 11
3721.8519768100919
 21
561.46930241345103
  0
LINE
  8
_0-0_0
  6
CONTINUOUS
 62
    7
 10
8753.2669768100895
 20
1626.4693024134544
 11
8753.2669768100895
 21
559.99999999999659
  0
LINE
  8
_0-0_0
  6
CONTINUOUS
 62
    7
 10
3437.8519768100887
 20
1228.8693024134545
 11
3281.49751536954
 21
958.055431208345
  0
LINE
  8
_0-0_0
  6
CONTINUOUS
 62
    7
 10
3281.49751536954
 20
958.055431208345
 11
3594.2064382506433
 21
958.055431208345
  0
LINE
  8
_0-0_0
  6
CONTINUOUS
 62
    7
 10
3594.2064382506433
 20
958.055431208345
 11
3437.8519768100887
 21
1228.8693024134545
  0
LINE
  8
_0-0_0
  6
CONTINUOUS
 62
    7
 10
3437.8519768100887
 20
873.8693024134534
 11
3281.49751536954
 21
603.05543120834386
  0
LINE
  8
_0-0_0
  6
CONTINUOUS
 62
    7
 10
3281.49751536954
 20
603.05543120834386
 11
3594.2064382506433
 21
603.05543120834386
  0
LINE
  8
_0-0_0
  6
CONTINUOUS
 62
    7
 10
3594.2064382506433
 20
603.05543120834386
 11
3437.8519768100887
 21
873.8693024134534
  0
TEXT
  8
_0-0_0
 62
    7
 10
27074.009136098317
 20
1434.9295454690064
 40
120.53975694444662
 41
1.000000000000939
 50
0
  1
.
  0
TEXT
  8
_0-0_0
 62
    7
 10
978.92598840504093
 20
959.06930241345378
 40
198.79999999999899
 41
1.0000000000000044
 50
0
  1
スカイライトチューブ
  0
TEXT
  8
_0-0_0
 62
    7
 10
1641.1050801452063
 20
770.14489352211797
 40
141.99999999999767
 41
1.000000000000014
 50
0
  1
太陽光照明システム
  0
TEXT
  8
_0-0_0
 62
    7
 10
20921.437727677967
 20
1417.8074209030369
 40
141.99999999999767
 41
1.0000000000001876
 50
0
  1
日付
  0
TEXT
  8
_0-0_0
 62
    7
 10
18133.374967261381
 20
1379.5678809724818
 40
141.99999999999767
 41
1.0000000000005211
 50
0
  1
図面名
  0
TEXT
  8
_0-0_0
 62
    7
 10
20948.148242000872
 20
881.19811100719971
 40
142.00000000000213
 41
1.0000000000001563
 50
0
  1
尺度
  0
TEXT
  8
_0-0_0
 62
    7
 10
22933.408702070505
 20
1413.6981110072015
 40
142.00000000000213
 41
0.9999999999991555
 50
0
  1
製図
  0
TEXT
  8
_0-0_0
 62
    7
 10
25774.778472035872
 20
1413.6981110072015
 40
142.00000000000213
 41
0.9999999999998227
 50
0
  1
担当者
  0
TEXT
  8
_0-0_0
 62
    7
 10
26832.929622209213
 20
1434.9295454690064
 40
142.00000000000213
 41
1.0000000000001563
 50
0
  1
Ｎｏ
  0
TEXT
  8
_0-0_0
 62
    7
 10
23229.028024355666
 20
1024.2847846469544
 40
198.79999999999899
 41
0.9999999999999686
 50
0
  1
株式会社
  0
TEXT
  8
_0-0_0
 62
    7
 10
24134.395307166142
 20
1017.6443024134528
 40
241.40000000000049
 41
0.9999999999999493
 50
0
  1
井 之 商
  0
TEXT
  8
_0-0_0
 62
    7
 10
2951.3641213139008
 20
801.09429785431985
 40
38.549240451388833
 41
1.000000000000004
 50
0
  1
ＴＭ
  0
TEXT
  8
_0-0_0
 62
    7
 10
3062.3148267924362
 20
1116.1266877687012
 40
35.500000000000043
 41
1
 50
0
  1
Ｒ
  0
TEXT
  8
_0-0_0
 62
    7
 10
3392.5289654464564
 20
1342.9767216100458
 40
149.09999999999997
 41
1
 50
0
  1
1
  0
TEXT
  8
_0-0_0
 62
    7
 10
3383.6337949919084
 20
987.97672161004471
 40
149.10000000000014
 41
0.9999999999999987
 50
0
  1
2
  0
TEXT
  8
_0-0_0
 62
    7
 10
3383.6337949919084
 20
632.97672161004641
 40
149.10000000000005
 41
0.9999999999999994
 50
0
  1
3
  0
TEXT
  8
_0-0_0
 62
    7
 10
24131.481976810181
 20
684.21535631345591
 40
170.39999999999722
 41
1.0000000000001406
 50
0
  1
技術・施工部
  0
CIRCLE
  8
_1-0_
  6
CONTINUOUS
 62
    7
 10
25500
 20
15812.563003447833
 40
2125
  0
CIRCLE
  8
_1-0_
  6
CONTINUOUS
 62
    7
 10
11300
 20
15812.563003447833
 40
1625
  0
CIRCLE
  8
_1-0_
  6
CONTINUOUS
 62
    7
 10
25500
 20
15812.563003447833
 40
1656.8529663467075
  0
CIRCLE
  8
_1-0_
  6
CONTINUOUS
 62
    7
 10
11300
 20
15812.563003447833
 40
1156.8529663467068
  0
LINE
  8
_1-f_
  6
CONTINUOUS
 62
    7
 10
9699.6874013551624
 20
15530.384714739072
 11
12900.312598644836
 21
16094.741292156596
  0
LINE
  8
_1-f_
  6
CONTINUOUS
 62
    7
 10
12900.312598644836
 20
16094.741292156596
 11
12719.051041237506
 21
16010.217639808454
  0
LINE
  8
_1-f_
  6
CONTINUOUS
 62
    7
 10
12900.312598644836
 20
16094.741292156596
 11
12701.073659026488
 21
16112.172440706127
  0
LINE
  8
_1-f_
  6
CONTINUOUS
 62
    7
 10
9699.6874013551624
 20
15530.384714739072
 11
9880.9489587624921
 21
15614.90836708721
  0
LINE
  8
_1-f_
  6
CONTINUOUS
 62
    7
 10
9699.6874013551624
 20
15530.384714739072
 11
9898.9263409735104
 21
15512.953566189541
  0
TEXT
  8
_1-f_
 62
    7
 10
11730.853391942841
 20
15888.534081177117
 40
300
 41
1
 50
10.000000000000023
  1
Φ325
  0
LINE
  8
_1-f_
  6
CONTINUOUS
 62
    7
 10
16307.283524849057
 20
15443.560625905604
 11
20492.716475150941
 21
16181.56538099006
  0
LINE
  8
_1-f_
  6
CONTINUOUS
 62
    7
 10
16307.283524849057
 20
15443.560625905604
 11
16488.545082256387
 21
15528.084278253746
  0
LINE
  8
_1-f_
  6
CONTINUOUS
 62
    7
 10
16307.283524849057
 20
15443.560625905604
 11
16506.522464467405
 21
15426.129477356073
  0
LINE
  8
_1-f_
  6
CONTINUOUS
 62
    7
 10
20492.716475150941
 20
16181.56538099006
 11
20311.454917743613
 21
16097.041728641922
  0
LINE
  8
_1-f_
  6
CONTINUOUS
 62
    7
 10
20492.716475150941
 20
16181.56538099006
 11
20293.477535532595
 21
16198.99652953959
  0
TEXT
  8
_1-f_
 62
    7
 10
19077.055330195893
 20
15931.946125593848
 40
300
 41
1
 50
9.9999999999999698
  1
Φ425
  0
LINE
  8
_1-f_
  6
CONTINUOUS
 62
    7
 10
23407.283524849059
 20
15443.560625905604
 11
27592.716475150941
 21
16181.56538099006
  0
LINE
  8
_1-f_
  6
CONTINUOUS
 62
    7
 10
23407.283524849059
 20
15443.560625905604
 11
23588.545082256387
 21
15528.084278253746
  0
LINE
  8
_1-f_
  6
CONTINUOUS
 62
    7
 10
23407.283524849059
 20
15443.560625905604
 11
23606.522464467405
 21
15426.129477356073
  0
LINE
  8
_1-f_
  6
CONTINUOUS
 62
    7
 10
27592.716475150941
 20
16181.56538099006
 11
27411.454917743613
 21
16097.041728641922
  0
LINE
  8
_1-f_
  6
CONTINUOUS
 62
    7
 10
27592.716475150941
 20
16181.56538099006
 11
27393.477535532595
 21
16198.99652953959
  0
TEXT
  8
_1-f_
 62
    7
 10
26177.05533019589
 20
15931.946125593848
 40
300
 41
1
 50
9.9999999999999787
  1
Φ425
  0
LINE
  8
_1-0_
  6
CONTINUOUS
 62
    7
 10
23418.211654266423
 20
11144.987509994377
 11
23819.850505726947
 21
11144.987509994377
  0
ARC
  8
_1-0_
  6
CONTINUOUS
 62
    7
 10
23418.211722494692
 20
11188.199234700605
 40
43.211722487900431
 50
180
 51
270.0000000000008
  0
LINE
  8
_1-0_
  6
CONTINUOUS
 62
    7
 10
23374.999942925631
 20
11224.447649081363
 11
23374.999942925631
 21
11188.199230655247
  0
ARC
  8
_1-0_
  6
CONTINUOUS
 62
    7
 10
23418.211722494692
 20
11224.447647103272
 40
43.211722487900431
 50
108.2915206131281
 51
180
  0
ARC
  8
_1-0_
  6
CONTINUOUS
 62
    7
 10
23406.24517857741
 20
11260.64910399307
 40
5.0837320574007885
 50
90
 51
108.29152061313978
  0
LINE
  8
_1-0_
  6
CONTINUOUS
 62
    7
 10
23408.359969828347
 20
11265.732836008132
 11
23406.245134610002
 21
11265.732836008132
  0
ARC
  8
_1-0_
  6
CONTINUOUS
 62
    7
 10
27581.7882775053
 20
11188.199234700605
 40
43.211722487900431
 50
270.0000000000008
 51
0.0000000000000127
  0
LINE
  8
_1-0_
  6
CONTINUOUS
 62
    7
 10
27625.000057074369
 20
11188.199230655247
 11
27625.000057074369
 21
11224.447649081363
  0
LINE
  8
_1-0_
  6
CONTINUOUS
 62
    7
 10
23819.850505726947
 20
11144.987509994377
 11
27180.149494273053
 21
11144.987509994377
  0
ARC
  8
_1-0_
  6
CONTINUOUS
 62
    7
 10
27593.75482142259
 20
11260.64910399307
 40
5.0837320574007885
 50
71.708479386860233
 51
90
  0
ARC
  8
_1-0_
  6
CONTINUOUS
 62
    7
 10
27581.7882775053
 20
11224.447647103272
 40
43.211722487900431
 50
0
 51
71.708479386869683
  0
LINE
  8
_1-0_
  6
CONTINUOUS
 62
    7
 10
27180.149494273053
 20
11144.987509994377
 11
27581.78834573357
 21
11144.987509994377
  0
LINE
  8
_1-0_
  6
CONTINUOUS
 62
    7
 10
27593.754865389998
 20
11265.732836008132
 11
27591.640030171653
 21
11265.732836008132
  0
LINE
  8
_1-0_
  6
CONTINUOUS
 62
    7
 10
23406.24517857741
 20
11265.732836050469
 11
25500
 21
11265.732836050469
  0
LINE
  8
_1-0_
  6
CONTINUOUS
 62
    7
 10
27593.75482142259
 20
11265.732836050469
 11
25500
 21
11265.732836050469
  0
LINE
  8
_1-0_
  6
CONTINUOUS
 62
    7
 10
20095.424712549229
 20
9385.8514423733304
 11
20095.424712549229
 21
9391.4435482772169
  0
LINE
  8
_1-0_
  6
CONTINUOUS
 62
    7
 10
16704.575287450767
 20
9385.8514423733304
 11
20095.424712549229
 21
9385.8514423733304
  0
LINE
  8
_1-0_
  6
CONTINUOUS
 62
    7
 10
16704.575287450767
 20
9391.4435482772169
 11
16704.575287450767
 21
9385.8514423733304
  0
LINE
  8
_1-0_
  6
CONTINUOUS
 62
    7
 10
16704.575287450767
 20
9391.4435482772169
 11
20095.424712549229
 21
9391.4435482772169
  0
LINE
  8
_1-0_
  6
CONTINUOUS
 62
    7
 10
20484.830564975535
 20
9468.4620905697393
 11
20484.830564975535
 21
9415.2730416371523
  0
LINE
  8
_1-0_
  6
CONTINUOUS
 62
    7
 10
16315.169435024462
 20
9415.2730416371523
 11
16315.169435024462
 21
9468.4620905697393
  0
LINE
  8
_1-0_
  6
CONTINUOUS
 62
    7
 10
20486.655359684835
 20
9489.3198651753501
 11
20484.830564975535
 21
9468.4620905697393
  0
ARC
  8
_1-0_
  6
CONTINUOUS
 62
    7
 10
16319.172427765398
 20
9415.273044592137
 40
4.0029386278749071
 50
180
 51
270.0000000000008
  0
LINE
  8
_1-0_
  6
CONTINUOUS
 62
    7
 10
16541.135447452081
 20
9411.270109809202
 11
16319.172441412937
 21
9411.270109809202
  0
LINE
  8
_1-0_
  6
CONTINUOUS
 62
    7
 10
16541.135447452081
 20
9411.270109809202
 11
16541.537179653336
 21
9434.2870051001973
  0
LINE
  8
_1-0_
  6
CONTINUOUS
 62
    7
 10
16541.537179653336
 20
9434.2870051001973
 11
16555.744690965497
 21
9434.2870051001973
  0
LINE
  8
_1-0_
  6
CONTINUOUS
 62
    7
 10
16555.744690965497
 20
9434.2870051001973
 11
16556.146423166785
 21
9411.270109809202
  0
LINE
  8
_1-0_
  6
CONTINUOUS
 62
    7
 10
16658.436478345113
 20
9411.270109809202
 11
16556.146423166785
 21
9411.270109809202
  0
LINE
  8
_1-0_
  6
CONTINUOUS
 62
    7
 10
16658.636449719244
 20
9434.1869308724908
 11
16658.436478345113
 21
9411.270109809202
  0
LINE
  8
_1-0_
  6
CONTINUOUS
 62
    7
 10
16672.346791336156
 20
9434.1869308724908
 11
16658.636449719244
 21
9434.1869308724908
  0
LINE
  8
_1-0_
  6
CONTINUOUS
 62
    7
 10
16672.546911831374
 20
9411.270109809202
 11
16672.346791336156
 21
9434.1869308724908
  0
LINE
  8
_1-0_
  6
CONTINUOUS
 62
    7
 10
16698.220641561948
 20
9411.270109809202
 11
16672.546911831374
 21
9411.270109809202
  0
LINE
  8
_1-0_
  6
CONTINUOUS
 62
    7
 10
16698.62073343126
 20
9388.3489502543543
 11
16698.220641561948
 21
9411.270109809202
  0
ARC
  8
_1-0_
  6
CONTINUOUS
 62
    7
 10
16701.16226294067
 20
9388.3933117059569
 40
2.541866028700686
 50
181.00000000026941
 51
270.0000000000008
  0
LINE
  8
_1-0_
  6
CONTINUOUS
 62
    7
 10
16743.147096251778
 20
9385.8514423733304
 11
16701.162204071996
 21
9385.8514423733304
  0
LINE
  8
_1-0_
  6
CONTINUOUS
 62
    7
 10
16743.147096251778
 20
9383.3095802897824
 11
16743.147096251778
 21
9385.8514423733304
  0
ARC
  8
_1-0_
  6
CONTINUOUS
 62
    7
 10
16719.850446687382
 20
9404.9154408925042
 40
31.773325358748728
 50
270.0000000000008
 51
317.15635695640628
  0
LINE
  8
_1-0_
  6
CONTINUOUS
 62
    7
 10
16318.211654266423
 20
9373.1421133154363
 11
16719.850505726947
 21
9373.1421133154363
  0
ARC
  8
_1-0_
  6
CONTINUOUS
 62
    7
 10
16318.211722494692
 20
9416.3538380216633
 40
43.211722487900431
 50
180
 51
270.0000000000008
  0
LINE
  8
_1-0_
  6
CONTINUOUS
 62
    7
 10
16274.999942925631
 20
9452.6022524024229
 11
16274.999942925631
 21
9416.3538339763072
  0
ARC
  8
_1-0_
  6
CONTINUOUS
 62
    7
 10
16318.211722494692
 20
9452.6022504243338
 40
43.211722487900431
 50
108.2915206131281
 51
180
  0
ARC
  8
_1-0_
  6
CONTINUOUS
 62
    7
 10
16306.24517857741
 20
9488.8037073141313
 40
5.0837320574007885
 50
90
 51
108.29152061313978
  0
LINE
  8
_1-0_
  6
CONTINUOUS
 62
    7
 10
16308.359969828347
 20
9493.8874393291917
 11
16306.245134610002
 21
9493.8874393291917
  0
ARC
  8
_1-0_
  6
CONTINUOUS
 62
    7
 10
16308.360037626657
 20
9488.8837660866848
 40
5.0036732848431962
 50
5.0000000000099334
 51
90
  0
LINE
  8
_1-0_
  6
CONTINUOUS
 62
    7
 10
16315.169435024462
 20
9468.4620905697393
 11
16313.344640315163
 21
9489.3198651753501
  0
ARC
  8
_1-0_
  6
CONTINUOUS
 62
    7
 10
20481.788277505304
 20
9416.3538380216633
 40
43.211722487900431
 50
270.0000000000008
 51
0.0000000000000127
  0
LINE
  8
_1-0_
  6
CONTINUOUS
 62
    7
 10
20525.000057074369
 20
9416.3538339763072
 11
20525.000057074369
 21
9452.6022524024229
  0
ARC
  8
_1-0_
  6
CONTINUOUS
 62
    7
 10
20480.827572234601
 20
9415.273044592137
 40
4.0029386278749071
 50
270.0000000000008
 51
0.0000000000000127
  0
LINE
  8
_1-0_
  6
CONTINUOUS
 62
    7
 10
20258.462820346624
 20
9434.2870051001973
 11
20258.864552547915
 21
9411.270109809202
  0
LINE
  8
_1-0_
  6
CONTINUOUS
 62
    7
 10
20243.853576833208
 20
9411.270109809202
 11
20244.255309034463
 21
9434.2870051001973
  0
LINE
  8
_1-0_
  6
CONTINUOUS
 62
    7
 10
20244.255309034463
 20
9434.2870051001973
 11
20243.957066865751
 21
9434.2870051001973
  0
LINE
  8
_1-0_
  6
CONTINUOUS
 62
    7
 10
20141.563521654887
 20
9411.270109809202
 11
20141.363550280756
 21
9434.1869308724908
  0
LINE
  8
_1-0_
  6
CONTINUOUS
 62
    7
 10
20127.653208663844
 20
9434.1869308724908
 11
20127.453088168626
 21
9411.270109809202
  0
LINE
  8
_1-0_
  6
CONTINUOUS
 62
    7
 10
20101.779358438049
 20
9411.270109809202
 11
20101.3792665687
 21
9388.3489502543543
  0
LINE
  8
_1-0_
  6
CONTINUOUS
 62
    7
 10
16698.220641561948
 20
9411.270109809202
 11
20101.779358438049
 21
9411.270109809202
  0
ARC
  8
_1-0_
  6
CONTINUOUS
 62
    7
 10
20098.837737059326
 20
9388.3933117059569
 40
2.541866028700686
 50
270.0000000000008
 51
358.99999999973221
  0
LINE
  8
_1-0_
  6
CONTINUOUS
 62
    7
 10
16743.147096251778
 20
9383.3095802897824
 11
20056.852903748222
 21
9383.3095802897824
  0
ARC
  8
_1-0_
  6
CONTINUOUS
 62
    7
 10
20080.149553312618
 20
9404.9154408925042
 40
31.77332535875005
 50
222.84364304359306
 51
270.0000000000008
  0
LINE
  8
_1-0_
  6
CONTINUOUS
 62
    7
 10
16719.850505726947
 20
9373.1421133154363
 11
20080.14949427305
 21
9373.1421133154363
  0
LINE
  8
_1-0_
  6
CONTINUOUS
 62
    7
 10
20056.852903748222
 20
9385.8514423733304
 11
20056.852903748222
 21
9383.3095802897824
  0
ARC
  8
_1-0_
  6
CONTINUOUS
 62
    7
 10
20493.75482142259
 20
9488.8037073141313
 40
5.0837320574007885
 50
71.708479386860233
 51
90
  0
ARC
  8
_1-0_
  6
CONTINUOUS
 62
    7
 10
20481.788277505304
 20
9452.6022504243338
 40
43.211722487900431
 50
0
 51
71.708479386869683
  0
ARC
  8
_1-0_
  6
CONTINUOUS
 62
    7
 10
20491.639962373309
 20
9488.8837660866848
 40
5.0036732848436536
 50
90
 51
174.9999999999919
  0
LINE
  8
_1-0_
  6
CONTINUOUS
 62
    7
 10
20098.837795928001
 20
9385.8514423733304
 11
20056.852903748222
 21
9385.8514423733304
  0
LINE
  8
_1-0_
  6
CONTINUOUS
 62
    7
 10
20127.453088168626
 20
9411.270109809202
 11
20101.779358438049
 21
9411.270109809202
  0
LINE
  8
_1-0_
  6
CONTINUOUS
 62
    7
 10
20141.363550280756
 20
9434.1869308724908
 11
20127.653208663844
 21
9434.1869308724908
  0
LINE
  8
_1-0_
  6
CONTINUOUS
 62
    7
 10
20243.853576833208
 20
9411.270109809202
 11
20141.563521654887
 21
9411.270109809202
  0
LINE
  8
_1-0_
  6
CONTINUOUS
 62
    7
 10
20244.255309034463
 20
9434.2870051001973
 11
20258.462820346624
 21
9434.2870051001973
  0
LINE
  8
_1-0_
  6
CONTINUOUS
 62
    7
 10
20480.827558587062
 20
9411.270109809202
 11
20258.864552547915
 21
9411.270109809202
  0
LINE
  8
_1-0_
  6
CONTINUOUS
 62
    7
 10
20080.14949427305
 20
9373.1421133154363
 11
20481.788345733574
 21
9373.1421133154363
  0
LINE
  8
_1-0_
  6
CONTINUOUS
 62
    7
 10
20493.754865389998
 20
9493.8874393291917
 11
20491.640030171649
 21
9493.8874393291917
  0
LINE
  8
_1-0_
  6
CONTINUOUS
 62
    8
 10
16698.62073343126
 20
9388.3489502543543
 11
16704.575287450767
 21
9388.3489502543543
  0
LINE
  8
_1-0_
  6
CONTINUOUS
 62
    8
 10
20095.424712549229
 20
9388.3489502543543
 11
20101.3792665687
 21
9388.3489502543543
  0
LINE
  8
_1-0_
  6
CONTINUOUS
 62
    7
 10
16318.211654266423
 20
11144.987509994377
 11
16719.850505726947
 21
11144.987509994377
  0
ARC
  8
_1-0_
  6
CONTINUOUS
 62
    7
 10
16318.211722494692
 20
11188.199234700605
 40
43.211722487900431
 50
180
 51
270.0000000000008
  0
LINE
  8
_1-0_
  6
CONTINUOUS
 62
    7
 10
16274.999942925631
 20
11224.447649081363
 11
16274.999942925631
 21
11188.199230655247
  0
ARC
  8
_1-0_
  6
CONTINUOUS
 62
    7
 10
16318.211722494692
 20
11224.447647103272
 40
43.211722487900431
 50
108.2915206131281
 51
180
  0
ARC
  8
_1-0_
  6
CONTINUOUS
 62
    7
 10
16306.24517857741
 20
11260.64910399307
 40
5.0837320574007885
 50
90
 51
108.29152061313978
  0
LINE
  8
_1-0_
  6
CONTINUOUS
 62
    7
 10
16308.359969828347
 20
11265.732836008132
 11
16306.245134610002
 21
11265.732836008132
  0
ARC
  8
_1-0_
  6
CONTINUOUS
 62
    7
 10
20481.788277505304
 20
11188.199234700605
 40
43.211722487900431
 50
270.0000000000008
 51
0.0000000000000127
  0
LINE
  8
_1-0_
  6
CONTINUOUS
 62
    7
 10
20525.000057074369
 20
11188.199230655247
 11
20525.000057074369
 21
11224.447649081363
  0
LINE
  8
_1-0_
  6
CONTINUOUS
 62
    7
 10
16719.850505726947
 20
11144.987509994377
 11
20080.14949427305
 21
11144.987509994377
  0
ARC
  8
_1-0_
  6
CONTINUOUS
 62
    7
 10
20493.75482142259
 20
11260.64910399307
 40
5.0837320574007885
 50
71.708479386860233
 51
90
  0
ARC
  8
_1-0_
  6
CONTINUOUS
 62
    7
 10
20481.788277505304
 20
11224.447647103272
 40
43.211722487900431
 50
0
 51
71.708479386869683
  0
LINE
  8
_1-0_
  6
CONTINUOUS
 62
    7
 10
20080.14949427305
 20
11144.987509994377
 11
20481.788345733574
 21
11144.987509994377
  0
LINE
  8
_1-0_
  6
CONTINUOUS
 62
    7
 10
20493.754865389998
 20
11265.732836008132
 11
20491.640030171649
 21
11265.732836008132
  0
LINE
  8
_1-0_
  6
CONTINUOUS
 62
    7
 10
16306.24517857741
 20
11265.732836050469
 11
18400
 21
11265.732836050469
  0
LINE
  8
_1-0_
  6
CONTINUOUS
 62
    7
 10
20493.75482142259
 20
11265.732836050469
 11
18400
 21
11265.732836050469
  0
LINE
  8
ADD_LINE
  6
DOT
 62
    1
 10
16719.850446687382
 20
9373.1421133154363
 11
16719.850505726947
 21
9373.1421133154363
  0
LINE
  8
ADD_LINE
  6
DOT
 62
    1
 10
16719.850446687382
 20
9373.1421133154363
 11
16719.850505726947
 21
9373.1421133154363
  0
LINE
  8
_1-0_
  6
CONTINUOUS
 62
    7
 10
12495.424712549229
 20
9385.8514423733304
 11
12495.424712549229
 21
9391.4435482772169
  0
LINE
  8
_1-0_
  6
CONTINUOUS
 62
    7
 10
12884.830564975537
 20
9468.4620905697393
 11
12884.830564975537
 21
9415.2730416371523
  0
LINE
  8
_1-0_
  6
CONTINUOUS
 62
    7
 10
12886.655359684835
 20
9489.3198651753501
 11
12884.830564975537
 21
9468.4620905697393
  0
ARC
  8
_1-0_
  6
CONTINUOUS
 62
    7
 10
12881.788277505306
 20
9416.3538380216633
 40
43.211722487900431
 50
270.0000000000008
 51
0.0000000000000127
  0
LINE
  8
_1-0_
  6
CONTINUOUS
 62
    7
 10
12925.000057074369
 20
9416.3538339763072
 11
12925.000057074369
 21
9452.6022524024229
  0
ARC
  8
_1-0_
  6
CONTINUOUS
 62
    7
 10
12880.827572234599
 20
9415.273044592137
 40
4.0029386278749071
 50
270.0000000000008
 51
0.0000000000000127
  0
LINE
  8
_1-0_
  6
CONTINUOUS
 62
    7
 10
12658.462820346625
 20
9434.2870051001973
 11
12658.864552547915
 21
9411.270109809202
  0
LINE
  8
_1-0_
  6
CONTINUOUS
 62
    7
 10
12643.853576833209
 20
9411.270109809202
 11
12644.255309034465
 21
9434.2870051001973
  0
LINE
  8
_1-0_
  6
CONTINUOUS
 62
    7
 10
12644.255309034465
 20
9434.2870051001973
 11
12643.957066865749
 21
9434.2870051001973
  0
LINE
  8
_1-0_
  6
CONTINUOUS
 62
    7
 10
12541.563521654887
 20
9411.270109809202
 11
12541.363550280754
 21
9434.1869308724908
  0
LINE
  8
_1-0_
  6
CONTINUOUS
 62
    7
 10
12527.653208663842
 20
9434.1869308724908
 11
12527.453088168624
 21
9411.270109809202
  0
LINE
  8
_1-0_
  6
CONTINUOUS
 62
    7
 10
12501.779358438049
 20
9411.270109809202
 11
12501.3792665687
 21
9388.3489502543543
  0
ARC
  8
_1-0_
  6
CONTINUOUS
 62
    7
 10
12498.837737059326
 20
9388.3933117059569
 40
2.541866028700686
 50
270.0000000000008
 51
358.99999999973221
  0
ARC
  8
_1-0_
  6
CONTINUOUS
 62
    7
 10
12480.149553312618
 20
9404.9154408925042
 40
31.77332535875005
 50
222.84364304359306
 51
270.0000000000008
  0
LINE
  8
_1-0_
  6
CONTINUOUS
 62
    7
 10
12456.85290374822
 20
9385.8514423733304
 11
12456.85290374822
 21
9383.3095802897824
  0
ARC
  8
_1-0_
  6
CONTINUOUS
 62
    7
 10
12893.75482142259
 20
9488.8037073141313
 40
5.0837320574007885
 50
71.708479386860233
 51
90
  0
ARC
  8
_1-0_
  6
CONTINUOUS
 62
    7
 10
12881.788277505306
 20
9452.6022504243338
 40
43.211722487900431
 50
0
 51
71.708479386869683
  0
ARC
  8
_1-0_
  6
CONTINUOUS
 62
    7
 10
12891.639962373307
 20
9488.8837660866848
 40
5.0036732848436536
 50
90
 51
174.9999999999919
  0
LINE
  8
_1-0_
  6
CONTINUOUS
 62
    7
 10
12498.837795928001
 20
9385.8514423733304
 11
12456.85290374822
 21
9385.8514423733304
  0
LINE
  8
_1-0_
  6
CONTINUOUS
 62
    7
 10
12527.453088168624
 20
9411.270109809202
 11
12501.779358438049
 21
9411.270109809202
  0
LINE
  8
_1-0_
  6
CONTINUOUS
 62
    7
 10
12541.363550280754
 20
9434.1869308724908
 11
12527.653208663842
 21
9434.1869308724908
  0
LINE
  8
_1-0_
  6
CONTINUOUS
 62
    7
 10
12643.853576833209
 20
9411.270109809202
 11
12541.563521654887
 21
9411.270109809202
  0
LINE
  8
_1-0_
  6
CONTINUOUS
 62
    7
 10
12644.255309034465
 20
9434.2870051001973
 11
12658.462820346625
 21
9434.2870051001973
  0
LINE
  8
_1-0_
  6
CONTINUOUS
 62
    7
 10
12880.82755858706
 20
9411.270109809202
 11
12658.864552547915
 21
9411.270109809202
  0
LINE
  8
_1-0_
  6
CONTINUOUS
 62
    7
 10
12480.14949427305
 20
9373.1421133154363
 11
12881.788345733574
 21
9373.1421133154363
  0
LINE
  8
_1-0_
  6
CONTINUOUS
 62
    7
 10
12893.754865389998
 20
9493.8874393291917
 11
12891.640030171649
 21
9493.8874393291917
  0
LINE
  8
_1-0_
  6
CONTINUOUS
 62
    8
 10
12495.424712549229
 20
9388.3489502543543
 11
12501.3792665687
 21
9388.3489502543543
  0
ARC
  8
_1-0_
  6
CONTINUOUS
 62
    7
 10
12881.788277505306
 20
11188.199234700605
 40
43.211722487900431
 50
270.0000000000008
 51
0.0000000000000127
  0
LINE
  8
_1-0_
  6
CONTINUOUS
 62
    7
 10
12925.000057074369
 20
11188.199230655247
 11
12925.000057074369
 21
11224.447649081363
  0
ARC
  8
_1-0_
  6
CONTINUOUS
 62
    7
 10
12893.75482142259
 20
11260.64910399307
 40
5.0837320574007885
 50
71.708479386860233
 51
90
  0
ARC
  8
_1-0_
  6
CONTINUOUS
 62
    7
 10
12881.788277505306
 20
11224.447647103272
 40
43.211722487900431
 50
0
 51
71.708479386869683
  0
LINE
  8
_1-0_
  6
CONTINUOUS
 62
    7
 10
12480.14949427305
 20
11144.987509994377
 11
12881.788345733574
 21
11144.987509994377
  0
LINE
  8
_1-0_
  6
CONTINUOUS
 62
    7
 10
12893.754865389998
 20
11265.732836008132
 11
12891.640030171649
 21
11265.732836008132
  0
LINE
  8
_1-0_
  6
CONTINUOUS
 62
    7
 10
12893.75482142259
 20
11265.732836050469
 11
11300
 21
11265.732836050469
  0
LINE
  8
_1-0_
  6
CONTINUOUS
 62
    7
 10
10104.575287450771
 20
9391.4435482772169
 11
10104.575287450771
 21
9385.8514423733304
  0
LINE
  8
_1-0_
  6
CONTINUOUS
 62
    7
 10
9715.1694350244616
 20
9415.2730416371523
 11
9715.1694350244616
 21
9468.4620905697393
  0
ARC
  8
_1-0_
  6
CONTINUOUS
 62
    7
 10
9719.1724277653993
 20
9415.273044592137
 40
4.0029386278749071
 50
180
 51
270.0000000000008
  0
LINE
  8
_1-0_
  6
CONTINUOUS
 62
    7
 10
9941.1354474520813
 20
9411.270109809202
 11
9719.1724414129367
 21
9411.270109809202
  0
LINE
  8
_1-0_
  6
CONTINUOUS
 62
    7
 10
9941.1354474520813
 20
9411.270109809202
 11
9941.5371796533364
 21
9434.2870051001973
  0
LINE
  8
_1-0_
  6
CONTINUOUS
 62
    7
 10
9941.5371796533364
 20
9434.2870051001973
 11
9955.7446909654973
 21
9434.2870051001973
  0
LINE
  8
_1-0_
  6
CONTINUOUS
 62
    7
 10
9955.7446909654973
 20
9434.2870051001973
 11
9956.1464231667869
 21
9411.270109809202
  0
LINE
  8
_1-0_
  6
CONTINUOUS
 62
    7
 10
10058.436478345113
 20
9411.270109809202
 11
9956.1464231667869
 21
9411.270109809202
  0
LINE
  8
_1-0_
  6
CONTINUOUS
 62
    7
 10
10058.636449719243
 20
9434.1869308724908
 11
10058.436478345113
 21
9411.270109809202
  0
LINE
  8
_1-0_
  6
CONTINUOUS
 62
    7
 10
10072.346791336156
 20
9434.1869308724908
 11
10058.636449719243
 21
9434.1869308724908
  0
LINE
  8
_1-0_
  6
CONTINUOUS
 62
    7
 10
10072.546911831374
 20
9411.270109809202
 11
10072.346791336156
 21
9434.1869308724908
  0
LINE
  8
_1-0_
  6
CONTINUOUS
 62
    7
 10
10098.220641561949
 20
9411.270109809202
 11
10072.546911831374
 21
9411.270109809202
  0
LINE
  8
_1-0_
  6
CONTINUOUS
 62
    7
 10
10098.620733431262
 20
9388.3489502543543
 11
10098.220641561949
 21
9411.270109809202
  0
ARC
  8
_1-0_
  6
CONTINUOUS
 62
    7
 10
10101.162262940672
 20
9388.3933117059569
 40
2.541866028700686
 50
181.00000000026941
 51
270.0000000000008
  0
LINE
  8
_1-0_
  6
CONTINUOUS
 62
    7
 10
10143.147096251776
 20
9385.8514423733304
 11
10101.162204071998
 21
9385.8514423733304
  0
LINE
  8
_1-0_
  6
CONTINUOUS
 62
    7
 10
10143.147096251776
 20
9383.3095802897824
 11
10143.147096251776
 21
9385.8514423733304
  0
ARC
  8
_1-0_
  6
CONTINUOUS
 62
    7
 10
10119.850446687382
 20
9404.9154408925042
 40
31.773325358748728
 50
270.0000000000008
 51
317.15635695640628
  0
LINE
  8
_1-0_
  6
CONTINUOUS
 62
    7
 10
9718.2116542664244
 20
9373.1421133154363
 11
10119.850505726949
 21
9373.1421133154363
  0
ARC
  8
_1-0_
  6
CONTINUOUS
 62
    7
 10
9718.2117224946924
 20
9416.3538380216633
 40
43.211722487900431
 50
180
 51
270.0000000000008
  0
LINE
  8
_1-0_
  6
CONTINUOUS
 62
    7
 10
9674.9999429256313
 20
9452.6022524024229
 11
9674.9999429256313
 21
9416.3538339763072
  0
ARC
  8
_1-0_
  6
CONTINUOUS
 62
    7
 10
9718.2117224946924
 20
9452.6022504243338
 40
43.211722487900431
 50
108.2915206131281
 51
180
  0
ARC
  8
_1-0_
  6
CONTINUOUS
 62
    7
 10
9706.2451785774101
 20
9488.8037073141313
 40
5.0837320574007885
 50
90
 51
108.29152061313978
  0
LINE
  8
_1-0_
  6
CONTINUOUS
 62
    7
 10
9708.3599698283488
 20
9493.8874393291917
 11
9706.2451346100024
 21
9493.8874393291917
  0
ARC
  8
_1-0_
  6
CONTINUOUS
 62
    7
 10
9708.3600376266568
 20
9488.8837660866848
 40
5.0036732848431962
 50
5.0000000000099334
 51
90
  0
LINE
  8
_1-0_
  6
CONTINUOUS
 62
    7
 10
9715.1694350244616
 20
9468.4620905697393
 11
9713.3446403151629
 21
9489.3198651753501
  0
LINE
  8
_1-0_
  6
CONTINUOUS
 62
    8
 10
10098.620733431262
 20
9388.3489502543543
 11
10104.575287450771
 21
9388.3489502543543
  0
LINE
  8
_1-0_
  6
CONTINUOUS
 62
    7
 10
9718.2116542664244
 20
11144.987509994377
 11
10119.850505726949
 21
11144.987509994377
  0
ARC
  8
_1-0_
  6
CONTINUOUS
 62
    7
 10
9718.2117224946924
 20
11188.199234700605
 40
43.211722487900431
 50
180
 51
270.0000000000008
  0
LINE
  8
_1-0_
  6
CONTINUOUS
 62
    7
 10
9674.9999429256313
 20
11224.447649081363
 11
9674.9999429256313
 21
11188.199230655247
  0
ARC
  8
_1-0_
  6
CONTINUOUS
 62
    7
 10
9718.2117224946924
 20
11224.447647103272
 40
43.211722487900431
 50
108.2915206131281
 51
180
  0
ARC
  8
_1-0_
  6
CONTINUOUS
 62
    7
 10
9706.2451785774101
 20
11260.64910399307
 40
5.0837320574007885
 50
90
 51
108.29152061313978
  0
LINE
  8
_1-0_
  6
CONTINUOUS
 62
    7
 10
9708.3599698283488
 20
11265.732836008132
 11
9706.2451346100024
 21
11265.732836008132
  0
LINE
  8
_1-0_
  6
CONTINUOUS
 62
    7
 10
9706.2451785774101
 20
11265.732836050469
 11
11300
 21
11265.732836050469
  0
LINE
  8
ADD_LINE
  6
DOT
 62
    1
 10
10119.850446687382
 20
9373.1421133154363
 11
10119.850505726949
 21
9373.1421133154363
  0
LINE
  8
ADD_LINE
  6
DOT
 62
    1
 10
10119.850446687382
 20
9373.1421133154363
 11
10119.850505726949
 21
9373.1421133154363
  0
LINE
  8
_1-0_
  6
CONTINUOUS
 62
    7
 10
10104.575287450771
 20
9385.8514423733304
 11
12495.424712549229
 21
9385.8514423733304
  0
LINE
  8
_1-0_
  6
CONTINUOUS
 62
    7
 10
10104.575287450771
 20
9391.4435482772169
 11
12495.424712549229
 21
9391.4435482772169
  0
LINE
  8
_1-0_
  6
CONTINUOUS
 62
    7
 10
10098.220641561949
 20
9411.270109809202
 11
12501.779358438049
 21
9411.270109809202
  0
LINE
  8
_1-0_
  6
CONTINUOUS
 62
    7
 10
10143.147096251776
 20
9383.3095802897824
 11
12456.85290374822
 21
9383.3095802897824
  0
LINE
  8
_1-0_
  6
CONTINUOUS
 62
    7
 10
10119.850505726949
 20
9373.1421133154363
 11
12480.14949427305
 21
9373.1421133154363
  0
LINE
  8
_1-0_
  6
CONTINUOUS
 62
    7
 10
10119.850505726949
 20
11144.987509994377
 11
12480.14949427305
 21
11144.987509994377
  0
LINE
  8
_1-f_
  6
CONTINUOUS
 62
    7
 10
2075.0000000067998
 20
11265.732836050469
 11
2075.0000000067998
 21
11144.987509994377
  0
POINT
  8
_1-f_
 62
    7
 10
2075.0000000067998
 20
11265.732836050469
  0
POINT
  8
_1-f_
 62
    7
 10
2075.0000000067998
 20
11144.987509994377
  0
LINE
  8
_1-f_
  6
CONTINUOUS
 62
    7
 10
2075.0000000067998
 20
11265.732836050469
 11
2325.0000000067998
 21
11265.732836050469
  0
LINE
  8
_1-f_
  6
CONTINUOUS
 62
    7
 10
2075.0000000067998
 20
11144.987509994377
 11
2325.0000000067998
 21
11144.987509994377
  0
TEXT
  8
_1-f_
 62
    7
 10
2025.0000000067985
 20
11055.360173022424
 40
300
 41
1
 50
90
  1
13
  0
LINE
  8
_1-f_
  6
CONTINUOUS
 62
    7
 10
22875.000000006799
 20
11265.732836050469
 11
22875.000000006799
 21
11144.987509994377
  0
POINT
  8
_1-f_
 62
    7
 10
22875.000000006799
 20
11265.732836050469
  0
POINT
  8
_1-f_
 62
    7
 10
22875.000000006799
 20
11144.987509994377
  0
LINE
  8
_1-f_
  6
CONTINUOUS
 62
    7
 10
22875.000000006799
 20
11265.732836050469
 11
23125.000000006799
 21
11265.732836050469
  0
LINE
  8
_1-f_
  6
CONTINUOUS
 62
    7
 10
22875.000000006799
 20
11144.987509994377
 11
23125.000000006799
 21
11144.987509994377
  0
TEXT
  8
_1-f_
 62
    7
 10
22825.000000006799
 20
11055.360173022424
 40
300
 41
1
 50
90
  1
13
  0
LINE
  8
_1-f_
  6
CONTINUOUS
 62
    7
 10
15775.000000006799
 20
11265.732836050469
 11
15775.000000006799
 21
11144.987509994377
  0
POINT
  8
_1-f_
 62
    7
 10
15775.000000006799
 20
11265.732836050469
  0
POINT
  8
_1-f_
 62
    7
 10
15775.000000006799
 20
11144.987509994377
  0
LINE
  8
_1-f_
  6
CONTINUOUS
 62
    7
 10
15775.000000006799
 20
11265.732836050469
 11
16025.000000006799
 21
11265.732836050469
  0
LINE
  8
_1-f_
  6
CONTINUOUS
 62
    7
 10
15775.000000006799
 20
11144.987509994377
 11
16025.000000006799
 21
11144.987509994377
  0
TEXT
  8
_1-f_
 62
    7
 10
15725.000000006799
 20
11055.360173022424
 40
300
 41
1
 50
90
  1
13
  0
LINE
  8
_1-f_
  6
CONTINUOUS
 62
    7
 10
9175.0000000067994
 20
11265.732836050469
 11
9175.0000000067994
 21
11144.987509994377
  0
POINT
  8
_1-f_
 62
    7
 10
9175.0000000067994
 20
11265.732836050469
  0
POINT
  8
_1-f_
 62
    7
 10
9175.0000000067994
 20
11144.987509994377
  0
LINE
  8
_1-f_
  6
CONTINUOUS
 62
    7
 10
9175.0000000067994
 20
11265.732836050469
 11
9425.0000000067994
 21
11265.732836050469
  0
LINE
  8
_1-f_
  6
CONTINUOUS
 62
    7
 10
9175.0000000067994
 20
11144.987509994377
 11
9425.0000000067994
 21
11144.987509994377
  0
TEXT
  8
_1-f_
 62
    7
 10
9125.0000000067994
 20
11055.360173022424
 40
300
 41
1
 50
90
  1
13
  0
TEXT
  8
_0-0_0
 62
    7
 10
21580.481976810075
 20
1189.8193024134514
 40
198.79999999999899
 41
0.9999999999998596
 50
0
  1
2019.9
  0
TEXT
  8
_0-0_0
 62
    7
 10
21729.581976810223
 20
657.31930241345538
 40
198.79999999999677
 41
1.0000000000000444
 50
0
  1
1/10
  0
LINE
  8
_1-3_
  6
CONTINUOUS
 62
    7
 10
10897.119929738155
 20
16896.996696548056
 11
11728.820655229501
 21
16065.29597105671
  0
LINE
  8
_1-3_
  6
CONTINUOUS
 62
    7
 10
11319.845640350301
 20
16969.245732766576
 11
11976.308028644835
 21
16312.783344472044
  0
LINE
  8
_1-3_
  6
CONTINUOUS
 62
    7
 10
11394.230175407331
 20
16965.571875828216
 11
12011.663367704168
 21
16348.138683531377
  0
LINE
  8
_1-3_
  6
CONTINUOUS
 62
    7
 10
11474.303301100608
 20
16956.209428253424
 11
12047.018706763411
 21
16383.494022590619
  0
LINE
  8
_1-3_
  6
CONTINUOUS
 62
    7
 10
11561.825909032625
 20
16939.39749844007
 11
12082.374045822744
 21
16418.849361649955
  0
LINE
  8
_1-3_
  6
CONTINUOUS
 62
    7
 10
11659.937783778509
 20
16911.996301812855
 11
12117.729384882077
 21
16454.204700709288
  0
LINE
  8
_1-3_
  6
CONTINUOUS
 62
    7
 10
11474.303301100608
 20
16956.209428253424
 11
12047.018706763411
 21
16383.494022590619
  0
LINE
  8
_1-3_
  6
CONTINUOUS
 62
    7
 10
11775.44315120212
 20
16867.20161250791
 11
12153.084723941411
 21
16489.560039768621
  0
LINE
  8
_1-3_
  6
CONTINUOUS
 62
    7
 10
11931.516720202992
 20
16781.838721625707
 11
12188.440063000744
 21
16524.915378827955
  0
LINE
  8
_1-3_
  6
CONTINUOUS
 62
    7
 10
11061.652432135117
 20
16944.596228507096
 11
11834.886672407501
 21
16171.36198823471
  0
LINE
  8
_1-3_
  6
CONTINUOUS
 62
    7
 10
11121.411273127524
 20
16955.548065633353
 11
11870.242011466835
 21
16206.717327294044
  0
LINE
  8
_1-3_
  6
CONTINUOUS
 62
    7
 10
11184.076782156297
 20
16963.593234723248
 11
11905.597350526168
 21
16242.072666353377
  0
LINE
  8
_1-3_
  6
CONTINUOUS
 62
    7
 10
11250.043851654502
 20
16968.336843343706
 11
11940.952689585502
 21
16277.42800541271
  0
LINE
  8
_1-3_
  6
CONTINUOUS
 62
    7
 10
11004.499201921702
 20
16931.038780601841
 11
11799.531333348168
 21
16136.006649175377
  0
LINE
  8
_1-3_
  6
CONTINUOUS
 62
    7
 10
10949.716981137333
 20
16915.110323267545
 11
11764.175994288835
 21
16100.651310116044
  0
LINE
  8
_1-3_
  6
CONTINUOUS
 62
    7
 10
10797.914155697219
 20
16854.781114351659
 11
11658.109977110835
 21
15994.585292938043
  0
LINE
  8
_1-3_
  6
CONTINUOUS
 62
    7
 10
10846.559088857995
 20
16876.846859309549
 11
11693.465316170168
 21
16029.940631997377
  0
LINE
  8
_1-3_
  6
CONTINUOUS
 62
    7
 10
10797.914155697219
 20
16854.781114351659
 11
11658.109977110835
 21
15994.585292938043
  0
LINE
  8
_1-3_
  6
CONTINUOUS
 62
    7
 10
10751.087647608028
 20
16830.896944322183
 11
11622.754638051501
 21
15959.22995387871
  0
LINE
  8
_1-3_
  6
CONTINUOUS
 62
    7
 10
10706.000682484406
 20
16805.273231327137
 11
11587.399298992168
 21
15923.874614819377
  0
LINE
  8
_1-3_
  6
CONTINUOUS
 62
    7
 10
10662.589887348027
 20
16777.973348344851
 11
11552.043959932835
 21
15888.519275760043
  0
LINE
  8
_1-3_
  6
CONTINUOUS
 62
    7
 10
10662.589887348027
 20
16777.973348344851
 11
11552.043959932835
 21
15888.519275760043
  0
LINE
  8
_1-3_
  6
CONTINUOUS
 62
    7
 10
10620.805118339413
 20
16749.047439234801
 11
11516.688620873501
 21
15853.16393670071
  0
LINE
  8
_1-3_
  6
CONTINUOUS
 62
    7
 10
10580.607782231224
 20
16718.534097224503
 11
11481.333281814259
 21
15817.808597641468
  0
LINE
  8
_1-3_
  6
CONTINUOUS
 62
    7
 10
10541.969618680881
 20
16686.461582656179
 11
11445.977942754926
 21
15782.453258582134
  0
LINE
  8
_1-3_
  6
CONTINUOUS
 62
    7
 10
10504.871848776764
 20
16652.84867444163
 11
11410.622603695592
 21
15747.097919522801
  0
LINE
  8
_1-3_
  6
CONTINUOUS
 62
    7
 10
10469.304627853688
 20
16617.705217246039
 11
11375.267264636259
 21
15711.742580463468
  0
LINE
  8
_1-3_
  6
CONTINUOUS
 62
    7
 10
10435.266764525597
 20
16581.032402455465
 11
11339.911925576926
 21
15676.387241404134
  0
LINE
  8
_1-3_
  6
CONTINUOUS
 62
    7
 10
10402.765686956953
 20
16542.82280190544
 11
11304.556586517592
 21
15641.031902344801
  0
LINE
  8
_1-3_
  6
CONTINUOUS
 62
    7
 10
10342.448226241242
 20
16461.718906383816
 11
11233.845908398926
 21
15570.321224226134
  0
LINE
  8
_1-3_
  6
CONTINUOUS
 62
    7
 10
10371.817654120661
 20
16503.060156623065
 11
11269.201247458259
 21
15605.676563285468
  0
LINE
  8
_1-3_
  6
CONTINUOUS
 62
    7
 10
10402.765686956953
 20
16542.82280190544
 11
11304.556586517592
 21
15641.031902344801
  0
LINE
  8
_1-3_
  6
CONTINUOUS
 62
    7
 10
10361.070423239114
 20
16488.373654169467
 11
10624.189349278358
 21
16751.492580208713
  0
LINE
  8
_1-3_
  6
CONTINUOUS
 62
    7
 10
10314.693026819677
 20
16418.763427686717
 11
11198.490569339592
 21
15534.965885166801
  0
LINE
  8
_1-3_
  6
CONTINUOUS
 62
    7
 10
10288.598850947468
 20
16374.146925440258
 11
11163.135230280259
 21
15499.610546107468
  0
LINE
  8
_1-3_
  6
CONTINUOUS
 62
    7
 10
10264.225204252933
 20
16327.809894016127
 11
11127.779891220925
 21
15464.255207048134
  0
LINE
  8
_1-3_
  6
CONTINUOUS
 62
    7
 10
10241.646398596111
 20
16279.678021554284
 11
11092.424552161592
 21
15428.899867988801
  0
LINE
  8
_1-3_
  6
CONTINUOUS
 62
    7
 10
10257.527131437708
 20
16314.119684249394
 11
10798.443319198441
 21
16855.035872010125
  0
LINE
  8
_1-3_
  6
CONTINUOUS
 62
    7
 10
10220.954392244812
 20
16229.659349786914
 11
11057.069213102259
 21
15393.544528929468
  0
LINE
  8
_1-3_
  6
CONTINUOUS
 62
    7
 10
10177.593829093505
 20
16092.765025667859
 11
11019.797977779979
 21
16934.96917435433
  0
LINE
  8
_1-3_
  6
CONTINUOUS
 62
    7
 10
10207.690077549694
 20
16193.571952242712
 11
10918.991051205119
 21
16904.872925898137
  0
LINE
  8
_1-3_
  6
CONTINUOUS
 62
    7
 10
10202.262656655608
 20
16177.640407257451
 11
11021.713874042925
 21
15358.189189870134
  0
LINE
  8
_1-3_
  6
CONTINUOUS
 62
    7
 10
10185.711501771653
 20
16123.48088402274
 11
10986.358534983592
 21
15322.833850810801
  0
LINE
  8
_1-3_
  6
CONTINUOUS
 62
    7
 10
10171.475538154484
 20
16067.006169521244
 11
10951.003195924259
 21
15287.478511751468
  0
LINE
  8
_1-3_
  6
CONTINUOUS
 62
    7
 10
10159.77437580388
 20
16007.99665375336
 11
10915.647856865016
 21
15252.123172692225
  0
LINE
  8
_1-3_
  6
CONTINUOUS
 62
    7
 10
10159.007407411813
 20
16003.467925867497
 11
11109.095077580336
 21
16953.555596036022
  0
LINE
  8
_1-3_
  6
CONTINUOUS
 62
    7
 10
10150.888413445087
 20
15946.171937993489
 11
10880.292517805683
 21
15216.767833632892
  0
LINE
  8
_1-3_
  6
CONTINUOUS
 62
    7
 10
10148.343885244351
 20
15922.093725581371
 11
11190.469277866465
 21
16964.21911820348
  0
LINE
  8
_1-3_
  6
CONTINUOUS
 62
    7
 10
10145.182992342676
 20
15881.166680977234
 11
10844.93717874635
 21
15181.412494573558
  0
LINE
  8
_1-3_
  6
CONTINUOUS
 62
    7
 10
10143.650504118574
 20
15846.689666336928
 11
11265.873337110908
 21
16968.912499329257
  0
LINE
  8
_1-3_
  6
CONTINUOUS
 62
    7
 10
10143.147035834756
 20
15812.491959366485
 11
10809.581839687016
 21
15146.057155514225
  0
LINE
  8
_1-3_
  6
CONTINUOUS
 62
    7
 10
10143.723337875972
 20
15776.051821975661
 11
11336.511181472175
 21
16968.839665571857
  0
LINE
  8
_1-3_
  6
CONTINUOUS
 62
    7
 10
10145.458455323851
 20
15739.469861758727
 11
10774.226500627683
 21
15110.701816454892
  0
LINE
  8
_1-3_
  6
CONTINUOUS
 62
    7
 10
10147.758174657378
 20
15709.375980638399
 11
11403.187022809438
 21
16964.804828790453
  0
LINE
  8
_1-3_
  6
CONTINUOUS
 62
    7
 10
10155.186964066657
 20
15646.094091929011
 11
11466.468911518821
 21
16957.376039381175
  0
LINE
  8
_1-3_
  6
CONTINUOUS
 62
    7
 10
10153.103276241694
 20
15661.114362722214
 11
10738.87116156835
 21
15075.346477395558
  0
LINE
  8
_1-3_
  6
CONTINUOUS
 62
    7
 10
10165.591788024991
 20
15585.78823776868
 11
11526.774765679158
 21
16946.971215422844
  0
LINE
  8
_1-3_
  6
CONTINUOUS
 62
    7
 10
10167.615103206186
 20
15575.891857639055
 11
10703.515822509016
 21
15039.991138336225
  0
LINE
  8
_1-3_
  6
CONTINUOUS
 62
    7
 10
10178.655650618288
 20
15528.141422243312
 11
11584.421581204526
 21
16933.907352829545
  0
LINE
  8
_1-3_
  6
CONTINUOUS
 62
    7
 10
10191.629393582984
 20
15481.166889143591
 11
10668.160483449683
 21
15004.635799276892
  0
LINE
  8
_1-3_
  6
CONTINUOUS
 62
    7
 10
10194.132479008838
 20
15472.907572515192
 11
11639.655430932644
 21
16918.430524438991
  0
LINE
  8
_1-3_
  6
CONTINUOUS
 62
    7
 10
10211.827900923416
 20
15419.892316311101
 11
11692.670687136731
 21
16900.735102524421
  0
LINE
  8
_1-3_
  6
CONTINUOUS
 62
    7
 10
10230.486103068315
 20
15371.599501539591
 11
10632.80514439035
 21
14969.280460217558
  0
LINE
  8
_1-3_
  6
CONTINUOUS
 62
    7
 10
10231.586427220405
 20
15368.940164489428
 11
11743.622838958407
 21
16880.976576227426
  0
LINE
  8
_1-3_
  6
CONTINUOUS
 62
    7
 10
10231.586427220405
 20
15368.940164489428
 11
11743.622838958407
 21
16880.976576227426
  0
LINE
  8
_1-3_
  6
CONTINUOUS
 62
    7
 10
10253.282626866414
 20
15319.92568601695
 11
11792.637317430885
 21
16859.280376581421
  0
LINE
  8
_1-3_
  6
CONTINUOUS
 62
    7
 10
10276.814892733308
 20
15272.747273765173
 11
11839.815729682658
 21
16835.748110714525
  0
LINE
  8
_1-3_
  6
CONTINUOUS
 62
    7
 10
10302.100948780784
 20
15227.322651693987
 11
11885.240351753846
 21
16810.462054667049
  0
LINE
  8
_1-3_
  6
CONTINUOUS
 62
    7
 10
10329.074565459641
 20
15183.585590254173
 11
11928.977413193657
 21
16783.488437988195
  0
LINE
  8
_1-3_
  6
CONTINUOUS
 62
    7
 10
10357.683138985363
 20
15141.483485661232
 11
11971.0795177866
 21
16754.879864462469
  0
LINE
  8
_1-3_
  6
CONTINUOUS
 62
    7
 10
10387.885907134274
 20
15100.975575691476
 11
12011.587427756358
 21
16724.67709631356
  0
LINE
  8
_1-3_
  6
CONTINUOUS
 62
    7
 10
10419.652649315536
 20
15062.03163975407
 11
12050.531363693761
 21
16692.910354132298
  0
LINE
  8
_1-3_
  6
CONTINUOUS
 62
    7
 10
10452.962768652362
 20
15024.631080972227
 11
12087.931922475604
 21
16659.600234795471
  0
LINE
  8
_1-3_
  6
CONTINUOUS
 62
    7
 10
10487.804688462109
 20
14988.762322663311
 11
12123.800680784523
 21
16624.758314985724
  0
LINE
  8
_1-3_
  6
CONTINUOUS
 62
    7
 10
10524.175520835051
 20
14954.422476917585
 11
12158.140526530247
 21
16588.387482612779
  0
LINE
  8
_1-3_
  6
CONTINUOUS
 62
    7
 10
10562.080984828075
 20
14921.617262791944
 11
12190.94574065589
 21
16550.482018619758
  0
LINE
  8
_1-3_
  6
CONTINUOUS
 62
    7
 10
10299.369157142079
 20
15232.005769347164
 11
10597.449805331016
 21
14933.925121158225
  0
LINE
  8
_1-3_
  6
CONTINUOUS
 62
    7
 10
11335.066730634449
 20
14691.282942685455
 11
11368.603677529398
 21
14657.745995790508
  0
LINE
  8
_1-3_
  6
CONTINUOUS
 62
    7
 10
11370.422069693783
 20
14726.638281744788
 11
11433.608934545655
 21
14663.45141689292
  0
LINE
  8
_1-3_
  6
CONTINUOUS
 62
    7
 10
11405.777408753116
 20
14761.993620804122
 11
11495.433650305529
 21
14672.337379251712
  0
LINE
  8
_1-3_
  6
CONTINUOUS
 62
    7
 10
11441.132747812359
 20
14797.348959863364
 11
11554.44316607341
 21
14684.038541602315
  0
LINE
  8
_1-3_
  6
CONTINUOUS
 62
    7
 10
11476.488086871692
 20
14832.704298922701
 11
11610.917880574907
 21
14698.274505219488
  0
LINE
  8
_1-3_
  6
CONTINUOUS
 62
    7
 10
11511.843425931025
 20
14868.059637982031
 11
11665.077403809619
 21
14714.825660103441
  0
LINE
  8
_1-3_
  6
CONTINUOUS
 62
    7
 10
11547.19876499036
 20
14903.414977041364
 11
11717.096346339082
 21
14733.517395692645
  0
LINE
  8
_1-3_
  6
CONTINUOUS
 62
    7
 10
11582.554104049692
 20
14938.770316100698
 11
11767.115018106451
 21
14754.209402043944
  0
LINE
  8
_1-3_
  6
CONTINUOUS
 62
    7
 10
11617.909443109025
 20
14974.125655160035
 11
11815.246890568294
 21
14776.788207700763
  0
LINE
  8
_1-3_
  6
CONTINUOUS
 62
    7
 10
11653.264782168359
 20
15009.480994219364
 11
11861.583921992426
 21
14801.161854395301
  0
LINE
  8
_1-3_
  6
CONTINUOUS
 62
    7
 10
11688.620121227692
 20
15044.836333278701
 11
11906.200424238883
 21
14827.256030267508
  0
LINE
  8
_1-3_
  6
CONTINUOUS
 62
    7
 10
11723.975460287025
 20
15080.191672338031
 11
11949.155902935985
 21
14855.011229689075
  0
LINE
  8
_1-3_
  6
CONTINUOUS
 62
    7
 10
11759.330799346359
 20
15115.547011397364
 11
11990.497153175233
 21
14884.380657568494
  0
LINE
  8
_1-3_
  6
CONTINUOUS
 62
    7
 10
11794.686138405692
 20
15150.902350456701
 11
12030.259798457608
 21
14915.328690404785
  0
LINE
  8
_1-3_
  6
CONTINUOUS
 62
    7
 10
11830.041477465025
 20
15186.257689516031
 11
12068.46939900763
 21
14947.829767973431
  0
LINE
  8
_1-3_
  6
CONTINUOUS
 62
    7
 10
11865.396816524359
 20
15221.613028575364
 11
12105.142213798206
 21
14981.86763130152
  0
LINE
  8
_1-3_
  6
CONTINUOUS
 62
    7
 10
11900.752155583692
 20
15256.968367634698
 11
12140.285670993797
 21
15017.434852224596
  0
LINE
  8
_1-3_
  6
CONTINUOUS
 62
    7
 10
11936.107494643025
 20
15292.323706694035
 11
12173.898579208348
 21
15054.532622128716
  0
LINE
  8
_1-3_
  6
CONTINUOUS
 62
    7
 10
11971.462833702361
 20
15327.679045753364
 11
12205.97109377667
 21
15093.170785679058
  0
LINE
  8
_1-3_
  6
CONTINUOUS
 62
    7
 10
12006.818172761601
 20
15363.034384812607
 11
12236.484435786968
 21
15133.368121787245
  0
LINE
  8
_1-3_
  6
CONTINUOUS
 62
    7
 10
12077.528850880268
 20
15433.745062931277
 11
12292.710227879306
 21
15218.563685932239
  0
LINE
  8
_1-3_
  6
CONTINUOUS
 62
    7
 10
12042.173511820934
 20
15398.389723871944
 11
12265.410344897016
 21
15175.152890795864
  0
LINE
  8
_1-3_
  6
CONTINUOUS
 62
    7
 10
12112.884189939601
 20
15469.100401990607
 11
12318.33394087435
 21
15263.650651055861
  0
LINE
  8
_1-3_
  6
CONTINUOUS
 62
    7
 10
12148.239528998934
 20
15504.45574104994
 11
12342.218110903827
 21
15310.477159145052
  0
LINE
  8
_1-3_
  6
CONTINUOUS
 62
    7
 10
12183.594868058268
 20
15539.811080109277
 11
12364.283855861717
 21
15359.12209230583
  0
LINE
  8
_1-3_
  6
CONTINUOUS
 62
    7
 10
12218.950207117601
 20
15575.16641916861
 11
12384.433693100222
 21
15409.682933185992
  0
LINE
  8
_1-3_
  6
CONTINUOUS
 62
    7
 10
12254.305546176935
 20
15610.521758227944
 11
12402.547319819712
 21
15462.279984585166
  0
LINE
  8
_1-3_
  6
CONTINUOUS
 62
    7
 10
12289.660885236268
 20
15645.877097287274
 11
12418.47577715401
 21
15517.062205369535
  0
LINE
  8
_1-3_
  6
CONTINUOUS
 62
    7
 10
12325.016224295601
 20
15681.23243634661
 11
12432.03322505926
 21
15574.215435582952
  0
LINE
  8
_1-3_
  6
CONTINUOUS
 62
    7
 10
12360.371563354935
 20
15716.58777540594
 11
12442.985062185522
 21
15633.974276575356
  0
LINE
  8
_1-3_
  6
CONTINUOUS
 62
    7
 10
12395.726902414268
 20
15751.943114465277
 11
12451.030231275416
 21
15696.639785604128
  0
LINE
  8
_1-3_
  6
CONTINUOUS
 62
    7
 10
12431.082241473601
 20
15787.298453524607
 11
12455.773839895875
 21
15762.606855102336
  0
LINE
  8
_1-3_
  6
CONTINUOUS
 62
    7
 10
11358.304095690701
 20
14657.180201874751
 11
12455.382801573083
 21
15754.25890775713
  0
LINE
  8
_1-3_
  6
CONTINUOUS
 62
    7
 10
11435.508438502979
 20
14663.673866568359
 11
12448.889136879472
 21
15677.054564944854
  0
LINE
  8
_1-3_
  6
CONTINUOUS
 62
    7
 10
11519.214952998329
 20
14676.669702945046
 11
12435.893300502787
 21
15593.348050449504
  0
LINE
  8
_1-3_
  6
CONTINUOUS
 62
    7
 10
11611.767986489636
 20
14698.512058317687
 11
12414.050945130146
 21
15500.795016958196
  0
LINE
  8
_1-3_
  6
CONTINUOUS
 62
    7
 10
11717.728612196459
 20
14733.762005905839
 11
12378.800997541992
 21
15394.834391251374
  0
LINE
  8
_1-3_
  6
CONTINUOUS
 62
    7
 10
11848.899324864775
 20
14794.222040455492
 11
12318.340962992341
 21
15263.663678583054
  0
LINE
  8
_1-3_
  6
CONTINUOUS
 62
    7
 10
27123.186710312031
 20
15738.693438912151
 11
27153.569814992177
 21
15708.310334232006
  0
LINE
  8
_1-3_
  6
CONTINUOUS
 62
    7
 10
27087.831371252694
 20
15703.338099852817
 11
27148.155039403413
 21
15643.014431702104
  0
LINE
  8
_1-3_
  6
CONTINUOUS
 62
    7
 10
27052.476032193365
 20
15667.982760793484
 11
27140.451091504849
 21
15580.007701481998
  0
LINE
  8
_1-3_
  6
CONTINUOUS
 62
    7
 10
27017.120693134028
 20
15632.627421734151
 11
27130.655376161565
 21
15519.09273870662
  0
LINE
  8
_1-3_
  6
CONTINUOUS
 62
    7
 10
26981.765354074698
 20
15597.272082674817
 11
27118.93062917536
 21
15460.106807574153
  0
LINE
  8
_1-3_
  6
CONTINUOUS
 62
    7
 10
26946.410015015361
 20
15561.916743615484
 11
27105.412590023439
 21
15402.914168607409
  0
LINE
  8
_1-3_
  6
CONTINUOUS
 62
    7
 10
26911.054675956031
 20
15526.561404556151
 11
27090.215581722259
 21
15347.400498789924
  0
LINE
  8
_1-3_
  6
CONTINUOUS
 62
    7
 10
26875.699336896694
 20
15491.206065496817
 11
27073.436654552148
 21
15293.468747841367
  0
LINE
  8
_1-3_
  6
CONTINUOUS
 62
    7
 10
26840.343997837364
 20
15455.850726437484
 11
27055.158719274972
 21
15241.036004999882
  0
LINE
  8
_1-3_
  6
CONTINUOUS
 62
    7
 10
26804.988658778027
 20
15420.495387378151
 11
27035.452953436539
 21
15190.031092719641
  0
LINE
  8
_1-3_
  6
CONTINUOUS
 62
    7
 10
26769.633319718698
 20
15385.140048318817
 11
27014.380674332584
 21
15140.392693704931
  0
LINE
  8
_1-3_
  6
CONTINUOUS
 62
    7
 10
26734.277980659361
 20
15349.784709259484
 11
26991.994813614907
 21
15092.06787630394
  0
LINE
  8
_1-3_
  6
CONTINUOUS
 62
    7
 10
26698.922641600031
 20
15314.429370200151
 11
26968.34108943375
 21
15045.010922366429
  0
LINE
  8
_1-3_
  6
CONTINUOUS
 62
    7
 10
26663.567302540694
 20
15279.074031140817
 11
26943.458945379676
 21
14999.182388301839
  0
LINE
  8
_1-3_
  6
CONTINUOUS
 62
    7
 10
26628.211963481364
 20
15243.718692081484
 11
26917.38230697755
 21
14954.548348585296
  0
LINE
  8
_1-3_
  6
CONTINUOUS
 62
    7
 10
26592.856624422122
 20
15208.363353022238
 11
26890.140193382467
 21
14911.079784061894
  0
LINE
  8
_1-3_
  6
CONTINUOUS
 62
    7
 10
26557.501285362785
 20
15173.008013962904
 11
26861.757212491546
 21
14868.752086834154
  0
LINE
  8
_1-3_
  6
CONTINUOUS
 62
    7
 10
26522.145946303455
 20
15137.652674903571
 11
26832.25396077794
 21
14827.544660429096
  0
LINE
  8
_1-3_
  6
CONTINUOUS
 62
    7
 10
26486.790607244118
 20
15102.297335844238
 11
26801.647344006426
 21
14787.440599081941
  0
LINE
  8
_1-3_
  6
CONTINUOUS
 62
    7
 10
26451.435268184789
 20
15066.941996784904
 11
26769.950831092887
 21
14748.426433876813
  0
LINE
  8
_1-3_
  6
CONTINUOUS
 62
    7
 10
26416.079929125452
 20
15031.586657725571
 11
26737.1746503547
 21
14710.491936496333
  0
LINE
  8
_1-3_
  6
CONTINUOUS
 62
    7
 10
26380.724590066122
 20
14996.231318666238
 11
26703.325935015244
 21
14673.629973717123
  0
LINE
  8
_1-3_
  6
CONTINUOUS
 62
    7
 10
26345.369251006785
 20
14960.875979606912
 11
26668.408822886384
 21
14637.836407727309
  0
LINE
  8
_1-3_
  6
CONTINUOUS
 62
    7
 10
26310.013911947455
 20
14925.520640547571
 11
26632.424513519749
 21
14603.110038975283
  0
LINE
  8
_1-3_
  6
CONTINUOUS
 62
    7
 10
26274.658572888118
 20
14890.165301488238
 11
26595.371284682784
 21
14569.452589693579
  0
LINE
  8
_1-3_
  6
CONTINUOUS
 62
    7
 10
26239.303233828789
 20
14854.809962428904
 11
26557.244468690631
 21
14536.868727567067
  0
LINE
  8
_1-3_
  6
CONTINUOUS
 62
    7
 10
26203.947894769452
 20
14819.454623369571
 11
26518.036387830442
 21
14505.366130308585
  0
LINE
  8
_1-3_
  6
CONTINUOUS
 62
    7
 10
26168.592555710122
 20
14784.099284310238
 11
26477.736246776225
 21
14474.955593244142
  0
LINE
  8
_1-3_
  6
CONTINUOUS
 62
    7
 10
26097.881877591455
 20
14713.388606191578
 11
26393.800037936951
 21
14417.470445846084
  0
LINE
  8
_1-3_
  6
CONTINUOUS
 62
    7
 10
26133.237216650785
 20
14748.743945250904
 11
26436.329978428847
 21
14445.65118347285
  0
LINE
  8
_1-3_
  6
CONTINUOUS
 62
    7
 10
26062.526538532118
 20
14678.033267132245
 11
26350.125137646632
 21
14390.434668017735
  0
LINE
  8
_1-3_
  6
CONTINUOUS
 62
    7
 10
26027.171199472876
 20
14642.677928072995
 11
26305.279913246744
 21
14364.569214299136
  0
LINE
  8
_1-3_
  6
CONTINUOUS
 62
    7
 10
25991.815860413546
 20
14607.322589013669
 11
26259.23450822457
 21
14339.903941202643
  0
LINE
  8
_1-3_
  6
CONTINUOUS
 62
    7
 10
25956.460521354216
 20
14571.967249954329
 11
26211.954059657517
 21
14316.473711651028
  0
LINE
  8
_1-3_
  6
CONTINUOUS
 62
    7
 10
25921.105182294879
 20
14536.611910894995
 11
26163.398062946289
 21
14294.319030243594
  0
LINE
  8
_1-3_
  6
CONTINUOUS
 62
    7
 10
25885.74984323555
 20
14501.256571835662
 11
26113.519585803147
 21
14273.486829268069
  0
LINE
  8
_1-3_
  6
CONTINUOUS
 62
    7
 10
25850.394504176213
 20
14465.901232776336
 11
26062.264291813251
 21
14254.031445139299
  0
LINE
  8
_1-3_
  6
CONTINUOUS
 62
    7
 10
25815.039165116876
 20
14430.545893717002
 11
26009.569219968405
 21
14236.015838865473
  0
LINE
  8
_1-3_
  6
CONTINUOUS
 62
    7
 10
25779.683826057546
 20
14395.190554657669
 11
25955.361246845579
 21
14219.513133869632
  0
LINE
  8
_1-3_
  6
CONTINUOUS
 62
    7
 10
25567.551791701546
 20
14183.058520301669
 11
25592.325906346334
 21
14158.284405656877
  0
LINE
  8
_1-3_
  6
CONTINUOUS
 62
    7
 10
25602.907130760876
 20
14218.413859361002
 11
25658.054925554337
 21
14163.266064567542
  0
LINE
  8
_1-3_
  6
CONTINUOUS
 62
    7
 10
25708.973147938879
 20
14324.479876539002
 11
25842.050986184906
 21
14191.402038292978
  0
LINE
  8
_1-3_
  6
CONTINUOUS
 62
    7
 10
25744.328486998216
 20
14359.835215598328
 11
25899.555129623484
 21
14204.608572973064
  0
LINE
  8
_1-3_
  6
CONTINUOUS
 62
    7
 10
25673.61780887955
 20
14289.124537479662
 11
25782.731005395573
 21
14180.011340963643
  0
LINE
  8
_1-3_
  6
CONTINUOUS
 62
    7
 10
25638.262469820213
 20
14253.769198420336
 11
25721.455083195378
 21
14170.576585045166
  0
LINE
  8
_1-3_
  6
CONTINUOUS
 62
    7
 10
25547.631141243834
 20
14156.394827665043
 11
27156.16817578279
 21
15764.931862203992
  0
LINE
  8
_1-3_
  6
CONTINUOUS
 62
    7
 10
25622.167129855279
 20
14160.22013815782
 11
27152.342865290011
 21
15690.395873592553
  0
LINE
  8
_1-3_
  6
CONTINUOUS
 62
    7
 10
25700.55006021056
 20
14167.89239039444
 11
27144.670613053393
 21
15612.012943237261
  0
LINE
  8
_1-3_
  6
CONTINUOUS
 62
    7
 10
25783.515795979536
 20
14180.147448044743
 11
27132.415555403088
 21
15529.047207468293
  0
LINE
  8
_1-3_
  6
CONTINUOUS
 62
    7
 10
25872.117153123327
 20
14198.038127069871
 11
27114.52487637796
 21
15440.445850324502
  0
LINE
  8
_1-3_
  6
CONTINUOUS
 62
    7
 10
25967.957319749108
 20
14223.167615576989
 11
27089.395387870842
 21
15344.605683698717
  0
LINE
  8
_1-3_
  6
CONTINUOUS
 62
    7
 10
26073.707889025762
 20
14258.207506734971
 11
27054.355496712862
 21
15238.855114422069
  0
LINE
  8
_1-3_
  6
CONTINUOUS
 62
    7
 10
26194.505530655664
 20
14308.294470246205
 11
27004.268533201626
 21
15118.057472792168
  0
LINE
  8
_1-3_
  6
CONTINUOUS
 62
    7
 10
26343.29661697787
 20
14386.374878449744
 11
26926.188124998087
 21
14969.266386469963
  0
LINE
  8
_1-3_
  6
CONTINUOUS
 62
    7
 10
26611.34207212042
 20
14583.709655473805
 11
26728.853347974029
 21
14701.220931327412
  0
LINE
  8
_1-3_
  6
CONTINUOUS
 62
    7
 10
24267.267598022921
 20
14705.525254675144
 11
24392.962251227305
 21
14579.830601470758
  0
LINE
  8
_1-3_
  6
CONTINUOUS
 62
    7
 10
23995.367194935567
 20
15118.847013999828
 11
24636.527863139298
 21
14477.686345796095
  0
LINE
  8
_1-3_
  6
CONTINUOUS
 62
    7
 10
24073.197867687653
 20
14970.305663129076
 11
24601.172524079964
 21
14442.331006736762
  0
LINE
  8
_1-3_
  6
CONTINUOUS
 62
    7
 10
23945.395971105117
 20
15239.528915948946
 11
24671.883202198631
 21
14513.041684855429
  0
LINE
  8
_1-3_
  6
CONTINUOUS
 62
    7
 10
23910.427330244391
 20
15345.208234928339
 11
24707.238541257964
 21
14548.397023914762
  0
LINE
  8
_1-3_
  6
CONTINUOUS
 62
    7
 10
23885.347879333593
 20
15440.998363957806
 11
24742.593880317298
 21
14583.752362974095
  0
LINE
  8
_1-3_
  6
CONTINUOUS
 62
    7
 10
23867.495161306579
 20
15529.561760103485
 11
24777.949219376631
 21
14619.107702033429
  0
LINE
  8
_1-3_
  6
CONTINUOUS
 62
    7
 10
23855.270410702171
 20
15612.497188826561
 11
24813.304558435964
 21
14654.463041092762
  0
LINE
  8
_1-3_
  6
CONTINUOUS
 62
    7
 10
23847.623251052519
 20
15690.855026594878
 11
24848.659897495298
 21
14689.818380152095
  0
LINE
  8
_1-3_
  6
CONTINUOUS
 62
    7
 10
23843.819290996205
 20
15765.369664769858
 11
24884.015236554631
 21
14725.173719211429
  0
LINE
  8
_1-3_
  6
CONTINUOUS
 62
    7
 10
23843.321091466471
 20
15836.578542418079
 11
24919.37057561387
 21
14760.529058270671
  0
LINE
  8
_1-3_
  6
CONTINUOUS
 62
    7
 10
23845.721402209045
 20
15904.88890979417
 11
24954.725914673203
 21
14795.884397330005
  0
LINE
  8
_1-3_
  6
CONTINUOUS
 62
    7
 10
23850.703061119708
 20
15970.617929002168
 11
24990.081253732536
 21
14831.239736389338
  0
LINE
  8
_1-3_
  6
CONTINUOUS
 62
    7
 10
23858.013581597334
 20
16034.018086643215
 11
25025.43659279187
 21
14866.595075448671
  0
LINE
  8
_1-3_
  6
CONTINUOUS
 62
    7
 10
23867.448337515809
 20
16095.294008843404
 11
25060.791931851203
 21
14901.950414508005
  0
LINE
  8
_1-3_
  6
CONTINUOUS
 62
    7
 10
23878.839034845147
 20
16154.613989632733
 11
25096.147270910536
 21
14937.305753567338
  0
LINE
  8
_1-3_
  6
CONTINUOUS
 62
    7
 10
23892.045569525228
 20
16212.118133071317
 11
25131.50260996987
 21
14972.661092626671
  0
LINE
  8
_1-3_
  6
CONTINUOUS
 62
    7
 10
23906.950130421799
 20
16267.924250293416
 11
25166.857949029203
 21
15008.016431686005
  0
LINE
  8
_1-3_
  6
CONTINUOUS
 62
    7
 10
23923.45283541764
 20
16322.132223416242
 11
25202.213288088537
 21
15043.371770745338
  0
LINE
  8
_1-3_
  6
CONTINUOUS
 62
    7
 10
23941.468441691468
 20
16374.827295261082
 11
25237.56862714787
 21
15078.727109804671
  0
LINE
  8
_1-3_
  6
CONTINUOUS
 62
    7
 10
23960.923825820239
 20
16426.082589250978
 11
25272.923966207203
 21
15114.082448864005
  0
LINE
  8
_1-3_
  6
CONTINUOUS
 62
    7
 10
23981.756026795763
 20
16475.96106639412
 11
25308.279305266537
 21
15149.437787923338
  0
LINE
  8
_1-3_
  6
CONTINUOUS
 62
    7
 10
24003.910708203195
 20
16524.517063105352
 11
25343.63464432587
 21
15184.793126982671
  0
LINE
  8
_1-3_
  6
CONTINUOUS
 62
    7
 10
24027.340937754809
 20
16571.797511672401
 11
25378.989983385203
 21
15220.148466042005
  0
LINE
  8
_1-3_
  6
CONTINUOUS
 62
    7
 10
24052.006210851305
 20
16617.842916694575
 11
25414.345322444537
 21
15255.503805101338
  0
LINE
  8
_1-3_
  6
CONTINUOUS
 62
    7
 10
24077.871664569902
 20
16662.688141094462
 11
25449.700661503783
 21
15290.859144160584
  0
LINE
  8
_1-3_
  6
CONTINUOUS
 62
    7
 10
24104.907442398253
 20
16706.363041384782
 11
25485.056000563116
 21
15326.214483219917
  0
LINE
  8
_1-3_
  6
CONTINUOUS
 62
    7
 10
24133.088180025017
 20
16748.892981876677
 11
25520.411339622449
 21
15361.569822279251
  0
LINE
  8
_1-3_
  6
CONTINUOUS
 62
    7
 10
24162.392589796309
 20
16790.29925022406
 11
25555.766678681783
 21
15396.925161338584
  0
LINE
  8
_1-3_
  6
CONTINUOUS
 62
    7
 10
24224.305724119236
 20
16869.807472138466
 11
25626.477356800449
 21
15467.635839457251
  0
LINE
  8
_1-3_
  6
CONTINUOUS
 62
    7
 10
24256.889586245747
 20
16907.934288130618
 11
25661.832695859783
 21
15502.991178516584
  0
LINE
  8
_1-3_
  6
CONTINUOUS
 62
    7
 10
24192.803126860756
 20
16830.59939127828
 11
25591.122017741116
 21
15432.280500397917
  0
LINE
  8
_1-3_
  6
CONTINUOUS
 62
    7
 10
24290.547035527452
 20
16944.987516967583
 11
25697.188034919116
 21
15538.346517575917
  0
LINE
  8
_1-3_
  6
CONTINUOUS
 62
    7
 10
24325.273404279476
 20
16980.971826334222
 11
25732.543373978449
 21
15573.701856635251
  0
LINE
  8
_1-3_
  6
CONTINUOUS
 62
    7
 10
24361.06697026929
 20
17015.888938463075
 11
25767.898713037783
 21
15609.057195694584
  0
LINE
  8
_1-3_
  6
CONTINUOUS
 62
    7
 10
24397.928933048501
 20
17049.737653802531
 11
25803.254052097116
 21
15644.412534753917
  0
LINE
  8
_1-3_
  6
CONTINUOUS
 62
    7
 10
24435.863430428981
 20
17082.513834540721
 11
25838.609391156449
 21
15679.767873813251
  0
LINE
  8
_1-3_
  6
CONTINUOUS
 62
    7
 10
24474.877595634109
 20
17114.210347454256
 11
25873.964730215783
 21
15715.123212872584
  0
LINE
  8
_1-3_
  6
CONTINUOUS
 62
    7
 10
24514.981656981261
 20
17144.816964225771
 11
25909.320069275116
 21
15750.478551931918
  0
LINE
  8
_1-3_
  6
CONTINUOUS
 62
    7
 10
24556.189083386322
 20
17174.320215939377
 11
25944.675408334449
 21
15785.833890991251
  0
LINE
  8
_1-3_
  6
CONTINUOUS
 62
    7
 10
24198.128933120846
 20
16837.401272305324
 11
24475.161731142503
 21
17114.434070326985
  0
LINE
  8
_1-3_
  6
CONTINUOUS
 62
    7
 10
24598.516780614063
 20
17202.703196830305
 11
25980.030747393779
 21
15821.189230050584
  0
LINE
  8
_1-3_
  6
CONTINUOUS
 62
    7
 10
24641.985345137466
 20
17229.945310425388
 11
26015.386086453022
 21
15856.544569109823
  0
LINE
  8
_1-3_
  6
CONTINUOUS
 62
    7
 10
24686.61938485401
 20
17256.021948827511
 11
26050.741425512355
 21
15891.899908169156
  0
LINE
  8
_1-3_
  6
CONTINUOUS
 62
    7
 10
24055.459378067339
 20
16624.021039133149
 11
24688.541964314682
 21
17257.103625380496
  0
LINE
  8
_1-3_
  6
CONTINUOUS
 62
    7
 10
24732.447918918602
 20
17280.904092881585
 11
26086.096764571688
 21
15927.25524722849
  0
LINE
  8
_1-3_
  6
CONTINUOUS
 62
    7
 10
24779.504872856109
 20
17304.557817062745
 11
26121.452103631022
 21
15962.610586287823
  0
LINE
  8
_1-3_
  6
CONTINUOUS
 62
    7
 10
24827.829690257102
 20
17326.943677780419
 11
26156.807442690355
 21
15997.965925347156
  0
LINE
  8
_1-3_
  6
CONTINUOUS
 62
    7
 10
23984.614969292768
 20
16482.465952239916
 11
24830.097051207915
 21
17327.948034155062
  0
LINE
  8
_1-3_
  6
CONTINUOUS
 62
    7
 10
24877.468089271813
 20
17348.015956884374
 11
26192.162781749688
 21
16033.32126440649
  0
LINE
  8
_1-3_
  6
CONTINUOUS
 62
    7
 10
24928.473001552051
 20
17367.721722722799
 11
26227.518120809022
 21
16068.676603465823
  0
LINE
  8
_1-3_
  6
CONTINUOUS
 62
    7
 10
23938.011849441315
 20
16365.152154269799
 11
24947.410849178039
 21
17374.55115400652
  0
LINE
  8
_1-3_
  6
CONTINUOUS
 62
    7
 10
24980.905744393538
 20
17385.999657999979
 11
26262.873459868355
 21
16104.031942525156
  0
LINE
  8
_1-3_
  6
CONTINUOUS
 62
    7
 10
25034.83749534209
 20
17402.77858517009
 11
26298.228798927688
 21
16139.38728158449
  0
LINE
  8
_1-3_
  6
CONTINUOUS
 62
    7
 10
23905.150304744962
 20
16261.579931454777
 11
25050.983071993054
 21
17407.412698702872
  0
LINE
  8
_1-3_
  6
CONTINUOUS
 62
    7
 10
25090.351165159576
 20
17417.97559347127
 11
26333.584137987022
 21
16174.742620643823
  0
LINE
  8
_1-3_
  6
CONTINUOUS
 62
    7
 10
23881.563831246414
 20
16167.28277983774
 11
25145.280223610091
 21
17430.999172201417
  0
LINE
  8
_1-3_
  6
CONTINUOUS
 62
    7
 10
25147.543804126319
 20
17431.493632623195
 11
26368.939477046355
 21
16210.097959703156
  0
LINE
  8
_1-3_
  6
CONTINUOUS
 62
    7
 10
25206.529735258788
 20
17443.218379609396
 11
26404.294816105688
 21
16245.45329876249
  0
LINE
  8
_1-3_
  6
CONTINUOUS
 62
    7
 10
23864.850193800572
 20
16079.858464273235
 11
25232.704539174596
 21
17447.712809647259
  0
LINE
  8
_1-3_
  6
CONTINUOUS
 62
    7
 10
25267.444698034167
 20
17453.014094952687
 11
26439.650155165022
 21
16280.808637821823
  0
LINE
  8
_1-3_
  6
CONTINUOUS
 62
    7
 10
23853.538444005579
 20
15997.836036359573
 11
25314.726967088263
 21
17459.024559442252
  0
LINE
  8
_1-3_
  6
CONTINUOUS
 62
    7
 10
25330.451428254273
 20
17460.718042851247
 11
26475.005494224355
 21
16316.163976881156
  0
LINE
  8
_1-3_
  6
CONTINUOUS
 62
    7
 10
25395.747330784179
 20
17466.132818440008
 11
26510.360833283688
 21
16351.51931594049
  0
LINE
  8
_1-3_
  6
CONTINUOUS
 62
    7
 10
23846.649398798072
 20
15920.236313033402
 11
25392.326690414433
 21
17465.913604649759
  0
LINE
  8
_1-3_
  6
CONTINUOUS
 62
    7
 10
23843.491937058068
 20
15846.368173174738
 11
25466.1948302731
 21
17469.071066389763
  0
LINE
  8
_1-3_
  6
CONTINUOUS
 62
    7
 10
25463.575291315312
 20
17469.015536027357
 11
26545.716172342931
 21
16386.874654999734
  0
LINE
  8
_1-3_
  6
CONTINUOUS
 62
    7
 10
23843.556668861784
 20
15775.722226859778
 11
25536.840776588051
 21
17469.006334586051
  0
LINE
  8
_1-3_
  6
CONTINUOUS
 62
    7
 10
25534.239356662925
 20
17469.06214879841
 11
26581.071511402264
 21
16422.229994059067
  0
LINE
  8
_1-3_
  6
CONTINUOUS
 62
    7
 10
23846.455452510487
 20
15707.910332389816
 11
25604.652671058018
 21
17466.107550937348
  0
LINE
  8
_1-3_
  6
CONTINUOUS
 62
    7
 10
25608.128270828889
 20
17465.883912751116
 11
26616.426850461601
 21
16457.585333118401
  0
LINE
  8
_1-3_
  6
CONTINUOUS
 62
    7
 10
23851.884669450345
 20
15642.628871211002
 11
25669.934132236824
 21
17460.678333997486
  0
LINE
  8
_1-3_
  6
CONTINUOUS
 62
    7
 10
25685.752304357255
 20
17458.970557341418
 11
26651.782189520931
 21
16492.940672177734
  0
LINE
  8
_1-3_
  6
CONTINUOUS
 62
    7
 10
25767.803930035199
 20
17447.629609782136
 11
26687.137528580268
 21
16528.296011237067
  0
LINE
  8
_1-3_
  6
CONTINUOUS
 62
    7
 10
23859.60174835151
 20
15579.635271993504
 11
25732.927731454321
 21
17452.961255096325
  0
LINE
  8
_1-3_
  6
CONTINUOUS
 62
    7
 10
23869.409521340112
 20
15518.732366863434
 11
25793.830636584393
 21
17443.153482107722
  0
LINE
  8
_1-3_
  6
CONTINUOUS
 62
    7
 10
23881.145435389186
 20
15459.757602793852
 11
25852.805400653982
 21
17431.417568058645
  0
LINE
  8
_1-3_
  6
CONTINUOUS
 62
    7
 10
25855.264540085493
 20
17430.879677850506
 11
26722.492867639601
 21
16563.651350296401
  0
LINE
  8
_1-3_
  6
CONTINUOUS
 62
    7
 10
23894.673894793723
 20
15402.575384079719
 11
25909.987619368108
 21
17417.889108654108
  0
LINE
  8
_1-3_
  6
CONTINUOUS
 62
    7
 10
25949.609012559027
 20
17407.245883495641
 11
26757.848206698931
 21
16599.006689355734
  0
LINE
  8
_1-3_
  6
CONTINUOUS
 62
    7
 10
23909.88069161469
 20
15347.071502782017
 11
25965.491500665816
 21
17402.682311833141
  0
LINE
  8
_1-3_
  6
CONTINUOUS
 62
    7
 10
23926.668869126952
 20
15293.149002175613
 11
26019.414001272224
 21
17385.894134320883
  0
LINE
  8
_1-3_
  6
CONTINUOUS
 62
    7
 10
23944.955593710176
 20
15240.72504864017
 11
26071.837954807666
 21
17367.607409737655
  0
LINE
  8
_1-3_
  6
CONTINUOUS
 62
    7
 10
26053.247472782154
 20
17374.318101391185
 11
26793.203545758264
 21
16634.362028415067
  0
LINE
  8
_1-3_
  6
CONTINUOUS
 62
    7
 10
23964.669752261187
 20
15189.728529072692
 11
26122.834474375133
 21
17347.893251186648
  0
LINE
  8
_1-3_
  6
CONTINUOUS
 62
    7
 10
23985.750081980343
 20
15140.098180673187
 11
26172.464822774651
 21
17326.812921467492
  0
LINE
  8
_1-3_
  6
CONTINUOUS
 62
    7
 10
26170.665584130238
 20
17327.61066816176
 11
26828.558884817598
 21
16669.717367474401
  0
LINE
  8
_1-3_
  6
CONTINUOUS
 62
    7
 10
24008.143697838939
 20
15091.781118413115
 11
26220.781885034718
 21
17304.419305608895
  0
LINE
  8
_1-3_
  6
CONTINUOUS
 62
    7
 10
24031.804922024658
 20
15044.731664480172
 11
26267.831338967659
 21
17280.75808142317
  0
LINE
  8
_1-3_
  6
CONTINUOUS
 62
    7
 10
24056.694346233216
 20
14998.910410570063
 11
26313.65259287777
 21
17255.868657214614
  0
LINE
  8
_1-3_
  6
CONTINUOUS
 62
    7
 10
26312.429377667468
 20
17256.557552743205
 11
26863.914223876931
 21
16705.072706533734
  0
LINE
  8
_1-3_
  6
CONTINUOUS
 62
    7
 10
24082.778076146729
 20
14954.283462364907
 11
26358.279541082924
 21
17229.784927301102
  0
LINE
  8
_1-3_
  6
CONTINUOUS
 62
    7
 10
24110.027120515373
 20
14910.821828614886
 11
26401.74117483295
 21
17202.535882932461
  0
LINE
  8
_1-3_
  6
CONTINUOUS
 62
    7
 10
24138.416896676095
 20
14868.500926656941
 11
26444.062076790891
 21
17174.146106771736
  0
LINE
  8
_1-3_
  6
CONTINUOUS
 62
    7
 10
24167.926831238685
 20
14827.300183100862
 11
26485.262820346976
 21
17144.63617220915
  0
LINE
  8
_1-3_
  6
CONTINUOUS
 62
    7
 10
24198.540039805281
 20
14787.202713548792
 11
26525.360289899039
 21
17114.02296364255
  0
LINE
  8
_1-3_
  6
CONTINUOUS
 62
    7
 10
24230.243073482397
 20
14748.195069107243
 11
26564.367934340589
 21
17082.319929965437
  0
LINE
  8
_1-3_
  6
CONTINUOUS
 62
    7
 10
24263.025722954098
 20
14710.26704046028
 11
26602.295962987559
 21
17049.537280493732
  0
LINE
  8
_1-3_
  6
CONTINUOUS
 62
    7
 10
24296.880873266047
 20
14673.411512653558
 11
26639.151490794273
 21
17015.682130181784
  0
LINE
  8
_1-3_
  6
CONTINUOUS
 62
    7
 10
24331.80440440711
 20
14637.624365675947
 11
26674.938637771884
 21
16980.758599040728
  0
LINE
  8
_1-3_
  6
CONTINUOUS
 62
    7
 10
24367.795134406908
 20
14602.904417557082
 11
26709.658585890749
 21
16944.767869040923
  0
LINE
  8
_1-3_
  6
CONTINUOUS
 62
    7
 10
24404.854803101382
 20
14569.253408133067
 11
26743.309595314764
 21
16907.708200346457
  0
LINE
  8
_1-3_
  6
CONTINUOUS
 62
    7
 10
24442.988096043733
 20
14536.676022956757
 11
26775.886980491079
 21
16869.574907404101
  0
LINE
  8
_1-3_
  6
CONTINUOUS
 62
    7
 10
24482.202709330555
 20
14505.179958124916
 11
26807.383045322917
 21
16830.360294117276
  0
LINE
  8
_1-3_
  6
CONTINUOUS
 62
    7
 10
24522.509457455264
 20
14474.776028130955
 11
26837.786975316878
 21
16790.05354599257
  0
LINE
  8
_1-3_
  6
CONTINUOUS
 62
    7
 10
26526.848582154766
 20
17112.849026374573
 11
26800.286022926743
 21
16839.411585602596
  0
LINE
  8
_1-3_
  6
CONTINUOUS
 62
    7
 10
24563.922427762107
 20
14445.478320319131
 11
26867.084683128702
 21
16748.640575685728
  0
ARC
  8
_1-1_
  6
DASHED1
 62
    7
 10
4699.6989953769498
 20
16829.909876920254
 40
200
 50
152.11985198165513
 51
335.56158368395285
  0
ARC
  8
_1-1_
  6
DASHED1
 62
    7
 10
4699.6989953769498
 20
16829.909876920254
 40
350
 50
158.82148607897778
 51
328.85994958663036
  0
ARC
  8
_1-1_
  6
DASHED1
 62
    7
 10
4699.6989953769498
 20
16829.909876920254
 40
500
 50
163.81836926531051
 51
303.82753845521711
  0
ARC
  8
_1-1_
  6
DASHED1
 62
    7
 10
5699.6989953769489
 20
15829.909876920254
 40
350
 50
170.56244605670119
 51
182.84431519786861
  0
ARC
  8
_1-1_
  6
DASHED1
 62
    7
 10
3699.6989953769612
 20
16829.909876920254
 40
200
 50
204.43841631604715
 51
27.880148018344926
  0
ARC
  8
_1-1_
  6
DASHED1
 62
    7
 10
3699.6989953769612
 20
16829.909876920254
 40
350
 50
211.14005041336966
 51
21.178513921022159
  0
ARC
  8
_1-1_
  6
DASHED1
 62
    7
 10
3699.6989953769612
 20
16829.909876920254
 40
500
 50
216.19277399834886
 51
16.18163073468952
  0
LINE
  8
_1-2_
  6
CONTINUOUS
 62
    7
 10
4199.6989953769553
 20
15636.203901880861
 11
4199.6989953769553
 21
16969.415930634947
  0
LINE
  8
_1-2_
  6
CONTINUOUS
 62
    7
 10
3199.6989953769557
 20
15231.437641847338
 11
3199.6989953769557
 21
16394.723380309297
  0
CIRCLE
  8
_1-1_
  6
DASHED1
 62
    7
 10
3699.6989953769557
 20
15829.909876920254
 40
200
  0
CIRCLE
  8
_1-1_
  6
DASHED1
 62
    7
 10
3699.6989953769557
 20
15829.909876920254
 40
350
  0
CIRCLE
  8
_1-1_
  6
DASHED1
 62
    7
 10
3699.6989953769557
 20
15829.909876920254
 40
500
  0
ARC
  8
_1-1_
  6
DASHED1
 62
    7
 10
4699.6989953769526
 20
14829.909876920254
 40
200
 50
16.104759338353904
 51
217.80375538817523
  0
ARC
  8
_1-2_
  6
DASHED1
 62
    7
 10
3700
 20
14829.909876920254
 40
500
 50
70.695661258439301
 51
146.4017230201751
  0
ARC
  8
_1-2_
  6
DASHED1
 62
    7
 10
3700
 20
14829.909876920254
 40
350
 50
83.273463635139578
 51
153.0467674521033
  0
ARC
  8
_1-1_
  6
DASHED1
 62
    7
 10
4699.6989953769526
 20
14829.909876920254
 40
500
 50
33.569413870326478
 51
72.454312070293113
  0
ARC
  8
_1-1_
  6
DASHED1
 62
    7
 10
4699.6989953769526
 20
14829.909876920254
 40
500
 50
197.54568792970687
 51
200.33910085620252
  0
ARC
  8
_1-1_
  6
DASHED1
 62
    7
 10
4699.6989953769526
 20
14829.909876920254
 40
350
 50
26.916945574079115
 51
86.195489700882462
  0
ARC
  8
_1-1_
  6
DASHED1
 62
    7
 10
4699.6989953769526
 20
14829.909876920254
 40
350
 50
183.80451029911777
 51
206.99156915244987
  0
ARC
  8
_1-1_
  6
DASHED1
 62
    7
 10
4699.6989953769553
 20
15829.909876920254
 40
350
 50
83.229095063139084
 51
186.77090493686092
  0
ARC
  8
_1-1_
  6
DASHED1
 62
    7
 10
4699.6989953769553
 20
15829.909876920254
 40
500
 50
70.668597773417432
 51
199.33140222658253
  0
LINE
  8
_1-2_
  6
CONTINUOUS
 62
    7
 10
3165.2725004845565
 20
16329.909876920254
 11
4893.4049704163481
 21
16329.909876920254
  0
LINE
  8
_1-2_
  6
CONTINUOUS
 62
    7
 10
5199.6989953769553
 20
15230.402626586369
 11
5199.6989953769553
 21
15655.915207427961
  0
LINE
  8
_1-2_
  6
CONTINUOUS
 62
    7
 10
4873.6936648692481
 20
15329.909876920254
 11
5251.35852362471
 21
15329.909876920254
  0
ARC
  8
_1-1_
  6
DASHED1
 62
    7
 10
4699.6989953769526
 20
15829.909876920257
 40
500
 50
297.39653926866924
 51
332.60346073133076
  0
ARC
  8
_1-1_
  6
DASHED1
 62
    7
 10
5699.6989953769553
 20
15829.909876920254
 40
500
 50
197.54568792970687
 51
219.93349240206612
  0
ARC
  8
_1-1_
  6
DASHED1
 62
    7
 10
2699.6989953769557
 20
15829.909876920254
 40
500
 50
320.147683618435
 51
38.527437776606341
  0
ARC
  8
_1-1_
  6
DASHED1
 62
    7
 10
2699.6989953769557
 20
15829.909876920254
 40
350
 50
349.67964682482022
 51
8.9954745702210026
  0
LINE
  8
_1-2_
  6
CONTINUOUS
 62
    7
 10
3148.6414763752905
 20
15329.909876920254
 11
3893.4049704163472
 21
15329.909876920254
  0
CIRCLE
  8
_1-1_
  6
DASHED1
 62
    7
 10
17900
 20
15812.563003447833
 40
200
  0
CIRCLE
  8
_1-1_
  6
DASHED1
 62
    7
 10
17900
 20
15812.563003447833
 40
350
  0
CIRCLE
  8
_1-1_
  6
DASHED1
 62
    7
 10
17900
 20
15812.563003447833
 40
500
  0
LINE
  8
_1-2_
  6
CONTINUOUS
 62
    7
 10
17400
 20
14491.517299434578
 11
17400
 21
17133.608707461091
  0
LINE
  8
_1-2_
  6
CONTINUOUS
 62
    7
 10
17696.322693209531
 20
17312.563003447831
 11
19103.677306790469
 21
17312.563003447831
  0
LINE
  8
_1-2_
  6
CONTINUOUS
 62
    7
 10
18400
 20
15341.158482656798
 11
18400
 21
17469.41596979454
  0
LINE
  8
_1-2_
  6
CONTINUOUS
 62
    7
 10
18597.05627484771
 20
14312.563003447833
 11
19103.677306790461
 21
14312.563003447833
  0
LINE
  8
_1-2_
  6
CONTINUOUS
 62
    7
 10
16820.391899206679
 20
15312.563003447833
 11
18371.404520791031
 21
15312.563003447833
  0
LINE
  8
_1-2_
  6
CONTINUOUS
 62
    7
 10
19597.05627484771
 20
15312.563003447833
 11
19979.608100793321
 21
15312.563003447829
  0
LINE
  8
_1-2_
  6
CONTINUOUS
 62
    7
 10
19400
 20
14491.517299434574
 11
19400
 21
15115.506728600118
  0
LINE
  8
_1-2_
  6
CONTINUOUS
 62
    7
 10
19400
 20
16341.1584826568
 11
19400
 21
17133.608707461091
  0
LINE
  8
_1-2_
  6
CONTINUOUS
 62
    7
 10
16820.391899206679
 20
16312.563003447833
 11
19371.404520791031
 21
16312.563003447833
  0
CIRCLE
  8
_1-1_
  6
DASHED1
 62
    7
 10
18900
 20
16812.563003447831
 40
200
  0
CIRCLE
  8
_1-1_
  6
DASHED1
 62
    7
 10
18900
 20
16812.563003447831
 40
350
  0
CIRCLE
  8
_1-1_
  6
DASHED1
 62
    7
 10
18900
 20
16812.563003447831
 40
500
  0
CIRCLE
  8
_1-1_
  6
DASHED1
 62
    7
 10
17900
 20
16812.563003447831
 40
200
  0
CIRCLE
  8
_1-1_
  6
DASHED1
 62
    7
 10
17900
 20
16812.563003447831
 40
350
  0
CIRCLE
  8
_1-1_
  6
DASHED1
 62
    7
 10
17900
 20
16812.563003447831
 40
500
  0
ARC
  8
_1-1_
  6
DASHED1
 62
    7
 10
18900
 20
17812.563003447831
 40
500
 50
224.30854158191033
 51
287.61897148223687
  0
ARC
  8
_1-1_
  6
DASHED1
 62
    7
 10
17900
 20
17812.563003447831
 40
500
 50
252.38102851776344
 51
315.69145841808961
  0
ARC
  8
_1-1_
  6
DASHED1
 62
    7
 10
19900
 20
14812.563003447829
 40
200
 50
105.38379499644323
 51
187.23606995159659
  0
ARC
  8
_1-1_
  6
DASHED1
 62
    7
 10
19900
 20
14812.563003447829
 40
350
 50
86.119636667813197
 51
206.50022828022693
  0
ARC
  8
_1-1_
  6
DASHED1
 62
    7
 10
19900
 20
14812.563003447829
 40
500
 50
81.06303575699161
 51
211.55682919104856
  0
ARC
  8
_1-1_
  6
DASHED1
 62
    7
 10
18900
 20
13812.563003447833
 40
500
 50
72.381028517763951
 51
135.69145841808916
  0
ARC
  8
_1-1_
  6
DASHED1
 62
    7
 10
16900
 20
14812.563003447833
 40
200
 50
352.76393004840298
 51
74.616205003556772
  0
ARC
  8
_1-1_
  6
DASHED1
 62
    7
 10
16900
 20
14812.563003447833
 40
350
 50
333.49977171977281
 51
93.880363332186803
  0
ARC
  8
_1-1_
  6
DASHED1
 62
    7
 10
16900
 20
14812.563003447833
 40
500
 50
328.44317080895121
 51
98.936964243008305
  0
ARC
  8
_1-1_
  6
DASHED1
 62
    7
 10
16900
 20
15812.563003447833
 40
200
 50
220.65881126341642
 51
139.34118873658412
  0
ARC
  8
_1-1_
  6
DASHED1
 62
    7
 10
16900
 20
15812.563003447833
 40
350
 50
249.21170649237405
 51
110.78829350762597
  0
ARC
  8
_1-1_
  6
DASHED1
 62
    7
 10
16900
 20
15812.563003447833
 40
500
 50
260.59330928712973
 51
99.40669071287023
  0
ARC
  8
_1-1_
  6
DASHED1
 62
    7
 10
16900
 20
16812.563003447831
 40
200
 50
285.38379499644384
 51
7.2360699515966163
  0
ARC
  8
_1-1_
  6
DASHED1
 62
    7
 10
16900
 20
16812.563003447831
 40
350
 50
266.11963666781344
 51
26.500228280227088
  0
ARC
  8
_1-1_
  6
DASHED1
 62
    7
 10
16900
 20
16812.563003447831
 40
500
 50
261.06303575699178
 51
31.556829191048759
  0
ARC
  8
_1-1_
  6
DASHED1
 62
    7
 10
19900
 20
16812.563003447831
 40
500
 50
148.44317080895112
 51
222.68232009863013
  0
ARC
  8
_1-1_
  6
DASHED1
 62
    7
 10
19900
 20
16812.563003447831
 40
350
 50
153.49977171977253
 51
221.68808756502384
  0
ARC
  8
_1-1_
  6
DASHED1
 62
    7
 10
19900
 20
16812.563003447831
 40
200
 50
172.76393004840236
 51
219.19746663456957
  0
ARC
  8
_1-1_
  6
DASHED1
 62
    7
 10
18900
 20
15812.563003447833
 40
200
 50
50.802533365430001
 51
219.19746663457013
  0
ARC
  8
_1-1_
  6
DASHED1
 62
    7
 10
18900
 20
15812.563003447833
 40
350
 50
48.311912434976072
 51
221.68808756502409
  0
ARC
  8
_1-1_
  6
DASHED1
 62
    7
 10
18900
 20
15812.563003447833
 40
500
 50
47.317679901369743
 51
222.6823200986303
  0
ARC
  8
_1-1_
  6
DASHED1
 62
    7
 10
17900
 20
14812.563003447833
 40
200
 50
50.802533365429504
 51
219.19746663457065
  0
ARC
  8
_1-1_
  6
DASHED1
 62
    7
 10
17900
 20
14812.563003447833
 40
350
 50
48.311912434975831
 51
221.68808756502435
  0
ARC
  8
_1-1_
  6
DASHED1
 62
    7
 10
17900
 20
14812.563003447833
 40
500
 50
47.317679901369573
 51
222.6823200986305
  0
ARC
  8
_1-1_
  6
DASHED1
 62
    7
 10
18900
 20
14812.563003447833
 40
200
 50
269.16277191101278
 51
0.8372280889868357
  0
ARC
  8
_1-1_
  6
DASHED1
 62
    7
 10
18900
 20
14812.563003447833
 40
350
 50
248.46031553061391
 51
21.539684469385936
  0
ARC
  8
_1-1_
  6
DASHED1
 62
    7
 10
18900
 20
14812.563003447833
 40
500
 50
241.18141828121242
 51
28.818581718787343
  0
ARC
  8
_1-1_
  6
DASHED1
 62
    7
 10
19900
 20
15812.563003447833
 40
200
 50
269.16277191101437
 51
319.34118873658599
  0
ARC
  8
_1-1_
  6
DASHED1
 62
    7
 10
19900
 20
15812.563003447833
 40
350
 50
248.46031553061454
 51
290.78829350762646
  0
ARC
  8
_1-1_
  6
DASHED1
 62
    7
 10
19900
 20
15812.563003447833
 40
500
 50
241.18141828121293
 51
279.4066907128705
  0
LINE
  8
_1-f_
  6
CENTER2
 62
    7
 10
4200
 20
9116.3061564059881
 11
4200
 21
19271.630615640599
  0
LINE
  8
_1-f_
  6
CENTER2
 62
    7
 10
7280.5324459234616
 20
15812.563003447833
 11
1128.0366056572375
 21
15812.563003447833
  0
LINE
  8
_1-f_
  6
CENTER2
 62
    7
 10
11300
 20
9116.3061564059881
 11
11300
 21
19271.630615640599
  0
LINE
  8
_1-f_
  6
CENTER2
 62
    7
 10
14380.532445923462
 20
15812.563003447833
 11
8228.0366056572384
 21
15812.563003447833
  0
LINE
  8
_1-f_
  6
CENTER2
 62
    7
 10
21340.848585690514
 20
15812.563003447833
 11
15287.188019966723
 21
15812.563003447833
  0
LINE
  8
_1-f_
  6
CENTER2
 62
    7
 10
25500
 20
9116.3061564059881
 11
25500
 21
19271.630615640599
  0
LINE
  8
_1-f_
  6
CENTER2
 62
    7
 10
28580.532445923462
 20
15812.563003447833
 11
22428.036605657238
 21
15812.563003447833
  0
LINE
  8
_1-f_
  6
CENTER2
 62
    7
 10
18400
 20
9116.3061564059881
 11
18400
 21
19271.630615640599
  0
LINE
  8
ADD_LINE
  6
DOT
 62
    1
 10
2325.0000000067998
 20
9287.8494985020097
 11
2325.0000000067998
 21
12076.205256735897
  0
LINE
  8
ADD_LINE
  6
DOT
 62
    1
 10
2075.0000000067998
 20
9287.8494985020097
 11
2075.0000000067998
 21
12076.205256735897
  0
LINE
  8
ADD_LINE
  6
DOT
 62
    1
 10
999.80267219636971
 20
15812.563003447833
 11
29050
 21
15812.563003447833
  0
LINE
  8
ADD_LINE
  6
DOT
 62
    1
 10
22875.000000006799
 20
9287.8494985020097
 11
22875.000000006799
 21
12076.205256735897
  0
LINE
  8
ADD_LINE
  6
DOT
 62
    1
 10
23125.000000006799
 20
9287.8494985020097
 11
23125.000000006799
 21
12076.205256735897
  0
LINE
  8
ADD_LINE
  6
DOT
 62
    1
 10
16719.850446687382
 20
8718.4195096661133
 11
650
 21
8718.4195096661133
  0
LINE
  8
ADD_LINE
  6
DOT
 62
    1
 10
650
 20
13687.563003447833
 11
29050
 21
13687.563003447833
  0
LINE
  8
ADD_LINE
  6
DOT
 62
    1
 10
29050
 20
14187.563003447833
 11
650
 21
14187.563003447833
  0
LINE
  8
ADD_LINE
  6
DOT
 62
    1
 10
650
 20
17937.563003447831
 11
29050
 21
17937.563003447831
  0
LINE
  8
ADD_LINE
  6
DOT
 62
    1
 10
29050
 20
17437.563003447831
 11
650
 21
17437.563003447831
  0
LINE
  8
ADD_LINE
  6
DOT
 62
    1
 10
10143.147096251776
 20
9385.8514423733304
 11
10143.147096251776
 21
20439.999999999996
  0
LINE
  8
ADD_LINE
  6
DOT
 62
    1
 10
12456.852966346707
 20
9383.3095796485559
 11
12456.852966346707
 21
20439.999999999996
  0
LINE
  8
ADD_LINE
  6
DOT
 62
    1
 10
23843.147096251778
 20
9385.8514423733304
 11
23843.147096251778
 21
20439.999999999996
  0
LINE
  8
ADD_LINE
  6
DOT
 62
    1
 10
27156.852966346709
 20
9383.3095796485559
 11
27156.852966346709
 21
20439.999999999996
  0
LINE
  8
ADD_LINE
  6
DOT
 62
    1
 10
2575
 20
1626.4693024134544
 11
2575
 21
20439.999999999996
  0
LINE
  8
ADD_LINE
  6
DOT
 62
    1
 10
4200
 20
1626.4693024134544
 11
4200
 21
20439.999999999996
  0
LINE
  8
ADD_LINE
  6
DOT
 62
    1
 10
5825
 20
1626.4693024134544
 11
5825
 21
20439.999999999996
  0
LINE
  8
ADD_LINE
  6
DOT
 62
    1
 10
9675
 20
1626.4693024134544
 11
9675
 21
20439.999999999996
  0
LINE
  8
ADD_LINE
  6
DOT
 62
    1
 10
11300
 20
1626.4693024134544
 11
11300
 21
20439.999999999996
  0
LINE
  8
ADD_LINE
  6
DOT
 62
    1
 10
18400
 20
1626.4693024134544
 11
18400
 21
20439.999999999996
  0
LINE
  8
ADD_LINE
  6
DOT
 62
    1
 10
25500
 20
1626.4693024134544
 11
25500
 21
20439.999999999996
  0
LINE
  8
ADD_LINE
  6
DOT
 62
    1
 10
29050
 20
9373.1421133154363
 11
650
 21
9373.1421133154363
  0
LINE
  8
ADD_LINE
  6
DOT
 62
    1
 10
29050
 20
10373.142113315436
 11
650
 21
10373.142113315436
  0
LINE
  8
ADD_LINE
  6
DOT
 62
    1
 10
25500
 20
11144.987509994377
 11
29050
 21
11144.987509994377
  0
LINE
  8
ADD_LINE
  6
DOT
 62
    1
 10
12925
 20
1626.4693024134544
 11
12925
 21
20439.999999999996
  0
LINE
  8
ADD_LINE
  6
DOT
 62
    1
 10
29050
 20
8718.4195096661133
 11
16719.850446687382
 21
8718.4195096661133
  0
LINE
  8
ADD_LINE
  6
DOT
 62
    1
 10
3043.1470962517765
 20
9385.8514423733304
 11
3043.1470962517765
 21
20439.999999999996
  0
LINE
  8
ADD_LINE
  6
DOT
 62
    1
 10
5356.852966346707
 20
9383.3095796485559
 11
5356.852966346707
 21
20439.999999999996
  0
LINE
  8
ADD_LINE
  6
DOT
 62
    1
 10
9425.0000000067994
 20
9287.8494985020097
 11
9425.0000000067994
 21
12076.205256735897
  0
LINE
  8
ADD_LINE
  6
DOT
 62
    1
 10
9175.0000000067994
 20
9287.8494985020097
 11
9175.0000000067994
 21
12076.205256735897
  0
LINE
  8
ADD_LINE
  6
DOT
 62
    1
 10
15775.000000006799
 20
9287.8494985020097
 11
15775.000000006799
 21
12076.205256735899
  0
LINE
  8
ADD_LINE
  6
DOT
 62
    1
 10
16025.000000006799
 20
9287.8494985020097
 11
16025.000000006799
 21
12076.205256735899
  0
LINE
  8
ADD_LINE
  6
DOT
 62
    1
 10
16743.147096251778
 20
9385.8514423733304
 11
16743.147096251778
 21
20439.999999999996
  0
LINE
  8
ADD_LINE
  6
DOT
 62
    1
 10
20056.852966346709
 20
9383.3095796485559
 11
20056.852966346709
 21
20439.999999999996
  0
LINE
  8
ADD_LINE
  6
DOT
 62
    1
 10
16275
 20
1626.4693024134544
 11
16275
 21
20439.999999999996
  0
LINE
  8
ADD_LINE
  6
DOT
 62
    1
 10
20525
 20
1626.4693024134544
 11
20525
 21
20439.999999999996
  0
LINE
  8
ADD_LINE
  6
DOT
 62
    1
 10
23375
 20
1626.4693024134544
 11
23375
 21
20439.999999999996
  0
LINE
  8
ADD_LINE
  6
DOT
 62
    1
 10
27625
 20
1626.4693024134544
 11
27625
 21
20439.999999999996
  0
TEXT
  8
_0-0_0
 62
    7
 10
18719.181976810058
 20
818.6346045839955
 40
198.79999999999899
 41
1.0000000000000571
 50
0
  1
【160DS/290DS】
  0
TEXT
  8
_0-0_0
 62
    7
 10
18570.081976810063
 20
1093.9693024134526
 40
198.79999999999899
 41
1.0000000000000571
 50
0
  1
丸型散光カバー一覧
  0
TEXT
  8
_0-0_0
 62
    7
 10
26640.079852262807
 20
614.72313010636981
 40
150
 41
1
 50
0
  1
Y
  0
ENDSEC
  0
EOF
