  0
SECTION
  2
HEADER
  9
$ACADVER
  1
AC1009
  9
$INSBASE
 10
0
 20
0
 30
0
  9
$EXTMIN
 10
0
 20
0
  9
$EXTMAX
 10
4200
 20
2970
  9
$LIMMIN
 10
0
 20
0
  9
$LIMMAX
 10
4200
 20
2970
  9
$LTSCALE
 40
10
  0
ENDSEC
  0
SECTION
  2
TABLES
  0
TABLE
  2
LTYPE
 70
     9
  0
LTYPE
  2
CONTINUOUS
 70
    64
  3
Ä└É³
 72
    65
 73
     0
 40
0.0
  0
LTYPE
  2
DASHED1
 70
    64
  3
--  --  --  --  --  --  --  --  
 72
    65
 73
     2
 40
2.5
 49
1.25
 49
-1.25
  0
LTYPE
  2
DASHED2
 70
    64
  3
----    ----    ----    ----    
 72
    65
 73
     2
 40
5.0
 49
2.5
 49
-2.5
  0
LTYPE
  2
DASHED3
 70
    64
  3
------  ------  ------  ------  
 72
    65
 73
     2
 40
5.0
 49
3.75
 49
-1.25
  0
LTYPE
  2
CENTER1
 70
    64
  3
----- - ----- - ----- - ----- - 
 72
    65
 73
     4
 40
10.0
 49
6.25
 49
-1.25
 49
1.25
 49
-1.25
  0
LTYPE
  2
CENTER2
 70
    64
  3
----------  --  ----------  --  
 72
    65
 73
     4
 40
20.0
 49
12.5
 49
-2.5
 49
2.5
 49
-2.5
  0
LTYPE
  2
PHANTOM1
 70
    64
  3
--- - - --- - - --- - - --- - - 
 72
    65
 73
     6
 40
10.0
 49
3.25
 49
-1.25
 49
1.25
 49
-1.25
 49
1.25
 49
-1.25
  0
LTYPE
  2
PHANTOM2
 70
    64
  3
--------  -  -  --------  -  -  
 72
    65
 73
     6
 40
20.0
 49
10.0
 49
-2.5
 49
1.25
 49
-2.5
 49
1.25
 49
-2.5
  0
LTYPE
  2
DOT
 70
    64
  3
-   -   -   -   -   -   -   -   
 72
    65
 73
     2
 40
2.5
 49
0.625
 49
-1.875
  0
LTYPE
  2
DUMMY
 70
    64
  3
â_â~ü[
 72
    65
 73
     0
 40
0.0
  0
LTYPE
  2
RAND1
 70
    64
  3
âëâôâ_âÇÉ³1
 72
    65
 73
     4
 40
10.0
 49
1.0
 49
-2.0
 49
3.0
 49
-4.0
  0
LTYPE
  2
RAND2
 70
    64
  3
âëâôâ_âÇÉ³2
 72
    65
 73
     4
 40
14.0
 49
2.0
 49
-3.0
 49
4.0
 49
-5.0
  0
LTYPE
  2
RAND3
 70
    64
  3
âëâôâ_âÇÉ³3
 72
    65
 73
     4
 40
18.0
 49
3.0
 49
-4.0
 49
5.0
 49
-6.0
  0
LTYPE
  2
RAND4
 70
    64
  3
âëâôâ_âÇÉ³4
 72
    65
 73
     4
 40
22.0
 49
4.0
 49
-5.0
 49
6.0
 49
-7.0
  0
LTYPE
  2
RAND5
 70
    64
  3
âëâôâ_âÇÉ³5
 72
    65
 73
     4
 40
26.0
 49
5.0
 49
-6.0
 49
7.0
 49
-8.0
  0
LTYPE
  2
LONG1
 70
    64
  3
----------  --  ----------  --  
 72
    65
 73
     4
 40
40.0
 49
32.5
 49
-2.5
 49
2.5
 49
-2.5
  0
LTYPE
  2
LONG2
 70
    64
  3
--------  -  -  --------  -  -  
 72
    65
 73
     6
 40
40.0
 49
30.0
 49
-2.5
 49
1.25
 49
-2.5
 49
1.25
 49
-2.5
  0
LTYPE
  2
LONG3
 70
    64
  3
+++++++++++++++..+++++++++++++++
 72
    65
 73
     2
 40
40.0
 49
37.5
 49
-2.5
  0
LTYPE
  2
LONG4
 70
    64
  3
+++++++++++++++..+++++++++++++++
 72
    65
 73
     2
 40
80.0
 49
75.0
 49
-5.0
  0
LTYPE
  2
LONG5
 70
    64
  3
----------  --  ----------  --  
 72
    65
 73
     4
 40
60.0
 49
37.5
 49
-7.5
 49
7.5
 49
-7.5
  0
LTYPE
  2
dashed
 70
   64
  3
-------   -------------   ------
 72
   65
 73
    2
 40
7.5
 49
6
 49
-1.5
  0
LTYPE
  2
dashed_spaced
 70
   64
  3
----        --------        ----
 72
   65
 73
    2
 40
12
 49
6
 49
-6
  0
LTYPE
  2
long_dashed_dotted
 70
   64
  3
------------- --- --------------
 72
   65
 73
    4
 40
15.25
 49
12
 49
-1.5
 49
0.25
 49
-1.5
  0
LTYPE
  2
long_dashed_double-dotted
 70
   64
  3
----------- --- --- ------------
 72
   65
 73
    6
 40
17
 49
12
 49
-1.5
 49
0.25
 49
-1.5
 49
0.25
 49
-1.5
  0
LTYPE
  2
long_dashed_triplicate-dotted
 70
   64
  3
--------- --- --- --- ----------
 72
   65
 73
    8
 40
18.75
 49
12
 49
-1.5
 49
0.25
 49
-1.5
 49
0.25
 49
-1.5
 49
0.25
 49
-1.5
  0
LTYPE
  2
dotted
 70
   64
  3
   -       -       -       -    
 72
   65
 73
    2
 40
1.75
 49
0.25
 49
-1.5
  0
LTYPE
  2
chain
 70
   64
  3
-------------- -- --------------
 72
   65
 73
    4
 40
18.5
 49
12
 49
-1.5
 49
3.5
 49
-1.5
  0
LTYPE
  2
chain_double_dash
 70
   64
  3
------------ -- -- -------------
 72
   65
 73
    6
 40
23.5
 49
12
 49
-1.5
 49
3.5
 49
-1.5
 49
3.5
 49
-1.5
  0
LTYPE
  2
dashed_dotted
 70
   64
  3
-----------     -     ----------
 72
   65
 73
    4
 40
9.25
 49
6
 49
-1.5
 49
0.25
 49
-1.5
  0
LTYPE
  2
double-dashed_dotted
 70
   64
  3
------   -----------   -   -----
 72
   65
 73
    6
 40
16.75
 49
6
 49
-1.5
 49
6
 49
-1.5
 49
0.25
 49
-1.5
  0
LTYPE
  2
dashed_double-dotted
 70
   64
  3
---------    -    -    ---------
 72
   65
 73
    6
 40
11
 49
6
 49
-1.5
 49
0.25
 49
-1.5
 49
0.25
 49
-1.5
  0
LTYPE
  2
double-dashed_double-dotted
 70
   64
  3
-----   ---------   -   -   ----
 72
   65
 73
    8
 40
18.5
 49
6
 49
-1.5
 49
6
 49
-1.5
 49
0.25
 49
-1.5
 49
0.25
 49
-1.5
  0
LTYPE
  2
dashed_triplicate-dotted
 70
   64
  3
-------    -    -    -    ------
 72
   65
 73
    8
 40
12.75
 49
6
 49
-1.5
 49
0.25
 49
-1.5
 49
0.25
 49
-1.5
 49
0.25
 49
-1.5
  0
LTYPE
  2
double-dashed_triplicate-dotted
 70
   64
  3
-----  ---------  -  -  -  -----
 72
   65
 73
   10
 40
20.25
 49
6
 49
-1.5
 49
6
 49
-1.5
 49
0.25
 49
-1.5
 49
0.25
 49
-1.5
 49
0.25
 49
-1.5
  0
LTYPE
  2
undefined
 70
   64
  3
--------------------------------
 72
   65
 73
    0
 40
0
  0
ENDTAB
  0
TABLE
  2
STYLE
  5
3
100
AcDbSymbolTable
 70
     1
  0
STYLE
  5
10
100
AcDbSymbolTableRecord
100
AcDbTextStyleTableRecord
  2
STANDARD
 70
     0
 40
0.0
 41
1.0
 50
0.0
 71
     0
 42
0.2
  3
txt
  4
bigfont.shx
  0
STYLE
  5
26
100
AcDbSymbolTableRecord
100
AcDbTextStyleTableRecord
  2
TATEGAKI
 70
    68
 40
0.0
 41
1.0
 50
0.0
 71
     0
 42
1.0
  3
txt
  4
bigfont.shx
  0
ENDTAB
  0
TABLE
  2
LAYER
 70
    5
  0
LAYER
  2
_0-3_âh__âÇ
 70
   64
 62
    7
  6
CONTINUOUS
  0
LAYER
  2
_0-4_òÂÄÜ
 70
   64
 62
    7
  6
CONTINUOUS
  0
LAYER
  2
_8-0_
 70
   64
 62
    7
  6
CONTINUOUS
  0
LAYER
  2
_f-f_
 70
   64
 62
    7
  6
CONTINUOUS
  0
LAYER
  2
ADD_LINE
 70
   64
 62
    7
  6
CONTINUOUS
  0
ENDTAB
  0
ENDSEC
  0
SECTION
  2
BLOCKS
  0
ENDSEC
  0
SECTION
  2
ENTITIES
  0
LINE
  8
_8-0_
  6
CONTINUOUS
 62
    7
 10
100
 20
235.20694400189541
 11
4100
 21
235.20694400189541
  0
LINE
  8
_8-0_
  6
CONTINUOUS
 62
    7
 10
452.65520800142099
 20
235.20694400189541
 11
452.65520800142099
 21
85.206944001895408
  0
LINE
  8
_8-0_
  6
CONTINUOUS
 62
    7
 10
3779.9552080014209
 20
235.20694400189541
 11
3779.9552080014209
 21
85.206944001895408
  0
LINE
  8
_8-0_
  6
CONTINUOUS
 62
    7
 10
1949.9552080014212
 20
235.20694400189541
 11
1949.9552080014212
 21
85.206944001895408
  0
LINE
  8
_8-0_
  6
CONTINUOUS
 62
    7
 10
452.65520800142099
 20
185.20694400189541
 11
1949.9552080014212
 21
185.20694400189541
  0
LINE
  8
_8-0_
  6
CONTINUOUS
 62
    7
 10
452.65520800142099
 20
135.20694400189541
 11
1949.9552080014212
 21
135.20694400189541
  0
LINE
  8
_8-0_
  6
CONTINUOUS
 62
    7
 10
100
 20
85
 11
4100
 21
85
  0
LINE
  8
_8-0_
  6
CONTINUOUS
 62
    7
 10
4100
 20
85
 11
4100
 21
2885
  0
LINE
  8
_8-0_
  6
CONTINUOUS
 62
    7
 10
4100
 20
2885
 11
100
 21
2885
  0
LINE
  8
_8-0_
  6
CONTINUOUS
 62
    7
 10
100
 20
2885
 11
100
 21
85
  0
LINE
  8
_8-0_
  6
CONTINUOUS
 62
    7
 10
3629.9552080014209
 20
235.20694400189541
 11
3629.9552080014209
 21
85.206944001895408
  0
LINE
  8
_8-0_
  6
CONTINUOUS
 62
    7
 10
2949.9552080014209
 20
235.20694400189541
 11
2949.9552080014209
 21
85.206944001895408
  0
LINE
  8
_8-0_
  6
CONTINUOUS
 62
    7
 10
2549.9552080014223
 20
235.20694400189541
 11
2549.9552080014223
 21
85.206944001895408
  0
LINE
  8
_8-0_
  6
CONTINUOUS
 62
    7
 10
2949.9552080014209
 20
160.20694400189541
 11
3229.9552080014223
 21
160.20694400189541
  0
LINE
  8
_8-0_
  6
CONTINUOUS
 62
    7
 10
3229.9552080014223
 20
235.20694400189541
 11
3229.9552080014223
 21
85.206944001895408
  0
CIRCLE
  8
_8-0_
  6
CONTINUOUS
 62
    7
 10
442.36473004322079
 20
165.65296725957865
 40
4.7179913754593441
  0
LINE
  8
_8-0_
  6
CONTINUOUS
 62
    7
 10
199.15615228161641
 20
206.8333333333328
 11
109.15615228161641
 21
206.8333333333328
  0
LINE
  8
_8-0_
  6
CONTINUOUS
 62
    7
 10
109.15615228161641
 20
206.8333333333328
 11
109.15615228161641
 21
116.8333333333328
  0
LINE
  8
_8-0_
  6
CONTINUOUS
 62
    7
 10
109.15615228161641
 20
116.8333333333328
 11
136.73490089143229
 21
144.41208194314868
  0
LINE
  8
_8-0_
  6
CONTINUOUS
 62
    7
 10
171.57740367180054
 20
179.25458472351693
 11
199.15615228161641
 21
206.8333333333328
  0
ARC
  8
_8-0_
  6
CONTINUOUS
 62
    7
 10
151.17948561494927
 20
164.80999999999995
 40
24.994421155307474
 50
35.303842184756199
 51
234.69615781526858
  0
LINE
  8
_8-0_
  6
CONTINUOUS
 62
    7
 10
198.65615228161573
 20
206.33333333333326
 11
109.15615228161641
 21
206.33333333333326
  0
LINE
  8
_8-0_
  6
CONTINUOUS
 62
    7
 10
198.15615228161619
 20
205.83333333333258
 11
109.15615228161641
 21
205.83333333333258
  0
LINE
  8
_8-0_
  6
CONTINUOUS
 62
    7
 10
197.6561522816155
 20
205.33333333333303
 11
109.15615228161641
 21
205.33333333333303
  0
LINE
  8
_8-0_
  6
CONTINUOUS
 62
    7
 10
197.15615228161596
 20
204.83333333333235
 11
109.15615228161641
 21
204.83333333333292
  0
LINE
  8
_8-0_
  6
CONTINUOUS
 62
    7
 10
196.65615228161641
 20
204.3333333333328
 11
109.15615228161641
 21
204.3333333333328
  0
LINE
  8
_8-0_
  6
CONTINUOUS
 62
    7
 10
196.15615228161573
 20
203.83333333333326
 11
109.15615228161641
 21
203.83333333333326
  0
LINE
  8
_8-0_
  6
CONTINUOUS
 62
    7
 10
195.65615228161619
 20
203.33333333333258
 11
109.15615228161641
 21
203.33333333333258
  0
LINE
  8
_8-0_
  6
CONTINUOUS
 62
    7
 10
195.1561522816155
 20
202.83333333333303
 11
109.15615228161641
 21
202.83333333333303
  0
LINE
  8
_8-0_
  6
CONTINUOUS
 62
    7
 10
194.65615228161596
 20
202.33333333333292
 11
109.15615228161641
 21
202.33333333333292
  0
LINE
  8
_8-0_
  6
CONTINUOUS
 62
    7
 10
194.15615228161585
 20
201.8333333333328
 11
109.15615228161641
 21
201.8333333333328
  0
LINE
  8
_8-0_
  6
CONTINUOUS
 62
    7
 10
193.65615228161573
 20
201.33333333333269
 11
109.15615228161641
 21
201.33333333333326
  0
LINE
  8
_8-0_
  6
CONTINUOUS
 62
    7
 10
193.15615228161619
 20
200.83333333333258
 11
109.15615228161641
 21
200.83333333333258
  0
LINE
  8
_8-0_
  6
CONTINUOUS
 62
    7
 10
192.65615228161607
 20
200.33333333333303
 11
109.15615228161641
 21
200.33333333333303
  0
LINE
  8
_8-0_
  6
CONTINUOUS
 62
    7
 10
192.15615228161596
 20
199.83333333333292
 11
109.15615228161641
 21
199.83333333333292
  0
LINE
  8
_8-0_
  6
CONTINUOUS
 62
    7
 10
191.65615228161585
 20
199.3333333333328
 11
109.15615228161641
 21
199.3333333333328
  0
LINE
  8
_8-0_
  6
CONTINUOUS
 62
    7
 10
191.15615228161573
 20
198.83333333333269
 11
109.15615228161641
 21
198.83333333333326
  0
LINE
  8
_8-0_
  6
CONTINUOUS
 62
    7
 10
190.65615228161619
 20
198.33333333333258
 11
109.15615228161641
 21
198.33333333333258
  0
LINE
  8
_8-0_
  6
CONTINUOUS
 62
    7
 10
190.15615228161607
 20
197.83333333333303
 11
109.15615228161641
 21
197.83333333333303
  0
LINE
  8
_8-0_
  6
CONTINUOUS
 62
    7
 10
189.65615228161596
 20
197.33333333333235
 11
109.15615228161641
 21
197.33333333333292
  0
LINE
  8
_8-0_
  6
CONTINUOUS
 62
    7
 10
189.15615228161641
 20
196.8333333333328
 11
109.15615228161641
 21
196.8333333333328
  0
LINE
  8
_8-0_
  6
CONTINUOUS
 62
    7
 10
188.65615228161573
 20
196.33333333333326
 11
109.15615228161641
 21
196.33333333333326
  0
LINE
  8
_8-0_
  6
CONTINUOUS
 62
    7
 10
188.15615228161619
 20
195.83333333333258
 11
109.15615228161641
 21
195.83333333333258
  0
LINE
  8
_8-0_
  6
CONTINUOUS
 62
    7
 10
187.6561522816155
 20
195.33333333333303
 11
109.15615228161641
 21
195.33333333333303
  0
LINE
  8
_8-0_
  6
CONTINUOUS
 62
    7
 10
187.15615228161596
 20
194.83333333333235
 11
109.15615228161641
 21
194.83333333333292
  0
LINE
  8
_8-0_
  6
CONTINUOUS
 62
    7
 10
186.65615228161585
 20
194.3333333333328
 11
109.15615228161641
 21
194.3333333333328
  0
LINE
  8
_8-0_
  6
CONTINUOUS
 62
    7
 10
186.15615228161573
 20
193.83333333333326
 11
109.15615228161641
 21
193.83333333333326
  0
LINE
  8
_8-0_
  6
CONTINUOUS
 62
    7
 10
185.65615228161619
 20
193.33333333333258
 11
109.15615228161641
 21
193.33333333333258
  0
LINE
  8
_8-0_
  6
CONTINUOUS
 62
    7
 10
185.1561522816155
 20
192.83333333333303
 11
109.15615228161641
 21
192.83333333333303
  0
LINE
  8
_8-0_
  6
CONTINUOUS
 62
    7
 10
184.65615228161596
 20
192.33333333333235
 11
109.15615228161641
 21
192.33333333333292
  0
LINE
  8
_8-0_
  6
CONTINUOUS
 62
    7
 10
184.15615228161641
 20
191.8333333333328
 11
109.15615228161641
 21
191.8333333333328
  0
LINE
  8
_8-0_
  6
CONTINUOUS
 62
    7
 10
183.65615228161573
 20
191.33333333333269
 11
109.15615228161641
 21
191.33333333333326
  0
LINE
  8
_8-0_
  6
CONTINUOUS
 62
    7
 10
183.15615228161619
 20
190.83333333333258
 11
109.15615228161641
 21
190.83333333333258
  0
LINE
  8
_8-0_
  6
CONTINUOUS
 62
    7
 10
182.6561522816155
 20
190.33333333333303
 11
109.15615228161641
 21
190.33333333333303
  0
LINE
  8
_8-0_
  6
CONTINUOUS
 62
    7
 10
182.15615228161596
 20
189.83333333333292
 11
109.15615228161641
 21
189.83333333333292
  0
LINE
  8
_8-0_
  6
CONTINUOUS
 62
    7
 10
181.65615228161585
 20
189.3333333333328
 11
156.00931077856785
 21
189.3333333333328
  0
LINE
  8
_8-0_
  6
CONTINUOUS
 62
    7
 10
146.34966045132956
 20
189.3333333333328
 11
109.15615228161641
 21
189.3333333333328
  0
LINE
  8
_8-0_
  6
CONTINUOUS
 62
    7
 10
181.15615228161573
 20
188.83333333333269
 11
158.07880039574172
 21
188.83333333333326
  0
LINE
  8
_8-0_
  6
CONTINUOUS
 62
    7
 10
144.28017083415682
 20
188.83333333333326
 11
109.15615228161641
 21
188.83333333333326
  0
LINE
  8
_8-0_
  6
CONTINUOUS
 62
    7
 10
180.65615228161619
 20
188.33333333333258
 11
159.62779182257464
 21
188.33333333333258
  0
LINE
  8
_8-0_
  6
CONTINUOUS
 62
    7
 10
142.73117940732334
 20
188.33333333333258
 11
109.15615228161641
 21
188.33333333333258
  0
LINE
  8
_8-0_
  6
CONTINUOUS
 62
    7
 10
180.15615228161607
 20
187.83333333333303
 11
160.90816543860115
 21
187.83333333333303
  0
LINE
  8
_8-0_
  6
CONTINUOUS
 62
    7
 10
141.4508057912974
 20
187.83333333333303
 11
109.15615228161641
 21
187.83333333333303
  0
LINE
  8
_8-0_
  6
CONTINUOUS
 62
    7
 10
179.65615228161596
 20
187.33333333333292
 11
162.01556167801073
 21
187.33333333333292
  0
LINE
  8
_8-0_
  6
CONTINUOUS
 62
    7
 10
140.34340955188725
 20
187.33333333333292
 11
109.15615228161641
 21
187.33333333333292
  0
LINE
  8
_8-0_
  6
CONTINUOUS
 62
    7
 10
179.15615228161585
 20
186.8333333333328
 11
162.99870207704203
 21
186.8333333333328
  0
LINE
  8
_8-0_
  6
CONTINUOUS
 62
    7
 10
139.36026915285652
 20
186.8333333333328
 11
109.15615228161641
 21
186.8333333333328
  0
LINE
  8
_8-0_
  6
CONTINUOUS
 62
    7
 10
178.65615228161573
 20
186.33333333333269
 11
163.88646051502405
 21
186.33333333333326
  0
LINE
  8
_8-0_
  6
CONTINUOUS
 62
    7
 10
138.47251071487449
 20
186.33333333333326
 11
109.15615228161641
 21
186.33333333333326
  0
LINE
  8
_8-0_
  6
CONTINUOUS
 62
    7
 10
178.15615228161619
 20
185.83333333333258
 11
164.69764171866586
 21
185.83333333333258
  0
LINE
  8
_8-0_
  6
CONTINUOUS
 62
    7
 10
137.66132951123211
 20
185.83333333333258
 11
109.15615228161641
 21
185.83333333333258
  0
LINE
  8
_8-0_
  6
CONTINUOUS
 62
    7
 10
177.65615228161607
 20
185.33333333333303
 11
165.44531464020395
 21
185.33333333333303
  0
LINE
  8
_8-0_
  6
CONTINUOUS
 62
    7
 10
136.91365658969403
 20
185.33333333333303
 11
109.15615228161641
 21
185.33333333333303
  0
LINE
  8
_8-0_
  6
CONTINUOUS
 62
    7
 10
177.15615228161596
 20
184.83333333333235
 11
166.13900469515784
 21
184.83333333333292
  0
LINE
  8
_8-0_
  6
CONTINUOUS
 62
    7
 10
136.21996653474071
 20
184.83333333333292
 11
109.15615228161641
 21
184.83333333333292
  0
LINE
  8
_8-0_
  6
CONTINUOUS
 62
    7
 10
176.65615228161641
 20
184.3333333333328
 11
166.78591199783568
 21
184.3333333333328
  0
LINE
  8
_8-0_
  6
CONTINUOUS
 62
    7
 10
135.57305923206286
 20
184.3333333333328
 11
109.15615228161641
 21
184.3333333333328
  0
LINE
  8
_8-0_
  6
CONTINUOUS
 62
    7
 10
176.15615228161573
 20
183.83333333333326
 11
167.39163777861336
 21
183.83333333333269
  0
LINE
  8
_8-0_
  6
CONTINUOUS
 62
    7
 10
134.96733345128519
 20
183.83333333333269
 11
109.15615228161641
 21
183.83333333333326
  0
LINE
  8
_8-0_
  6
CONTINUOUS
 62
    7
 10
175.65615228161619
 20
183.33333333333258
 11
167.96064204444292
 21
183.33333333333258
  0
LINE
  8
_8-0_
  6
CONTINUOUS
 62
    7
 10
134.39832918545562
 20
183.33333333333258
 11
109.15615228161641
 21
183.33333333333258
  0
LINE
  8
_8-0_
  6
CONTINUOUS
 62
    7
 10
175.1561522816155
 20
182.83333333333303
 11
168.49654496243829
 21
182.83333333333246
  0
LINE
  8
_8-0_
  6
CONTINUOUS
 62
    7
 10
133.86242626745968
 20
182.83333333333303
 11
109.15615228161641
 21
182.83333333333303
  0
LINE
  8
_8-0_
  6
CONTINUOUS
 62
    7
 10
174.65615228161596
 20
182.33333333333235
 11
169.00233268767579
 21
182.33333333333235
  0
LINE
  8
_8-0_
  6
CONTINUOUS
 62
    7
 10
133.35663854222275
 20
182.33333333333235
 11
109.15615228161641
 21
182.33333333333292
  0
LINE
  8
_8-0_
  6
CONTINUOUS
 62
    7
 10
174.15615228161641
 20
181.8333333333328
 11
169.48050228373347
 21
181.8333333333328
  0
LINE
  8
_8-0_
  6
CONTINUOUS
 62
    7
 10
132.8784689461645
 20
181.8333333333328
 11
109.15615228161641
 21
181.8333333333328
  0
LINE
  8
_8-0_
  6
CONTINUOUS
 62
    7
 10
173.65615228161573
 20
181.33333333333326
 11
169.93316643884214
 21
181.33333333333326
  0
LINE
  8
_8-0_
  6
CONTINUOUS
 62
    7
 10
132.42580479105641
 20
181.33333333333326
 11
109.15615228161641
 21
181.33333333333326
  0
LINE
  8
_8-0_
  6
CONTINUOUS
 62
    7
 10
173.15615228161619
 20
180.83333333333258
 11
170.36213083863458
 21
180.83333333333258
  0
LINE
  8
_8-0_
  6
CONTINUOUS
 62
    7
 10
131.99684039126396
 20
180.83333333333258
 11
109.15615228161641
 21
180.83333333333258
  0
LINE
  8
_8-0_
  6
CONTINUOUS
 62
    7
 10
172.6561522816155
 20
180.33333333333303
 11
170.76895245585945
 21
180.33333333333303
  0
LINE
  8
_8-0_
  6
CONTINUOUS
 62
    7
 10
131.59001877403853
 20
180.33333333333303
 11
109.15615228161641
 21
180.33333333333303
  0
LINE
  8
_8-0_
  6
CONTINUOUS
 62
    7
 10
172.15615228161596
 20
179.83333333333292
 11
171.15498421809889
 21
179.83333333333292
  0
LINE
  8
_8-0_
  6
CONTINUOUS
 62
    7
 10
131.20398701179909
 20
179.83333333333292
 11
109.15615228161641
 21
179.83333333333292
  0
LINE
  8
_8-0_
  6
CONTINUOUS
 62
    7
 10
171.65615228161641
 20
179.3333333333328
 11
171.52140975643078
 21
179.3333333333328
  0
LINE
  8
_8-0_
  6
CONTINUOUS
 62
    7
 10
130.83756147346776
 20
179.3333333333328
 11
109.15615228161641
 21
179.3333333333328
  0
LINE
  8
_8-0_
  6
CONTINUOUS
 62
    7
 10
130.48970042729877
 20
178.83333333333269
 11
109.15615228161641
 21
178.83333333333326
  0
LINE
  8
_8-0_
  6
CONTINUOUS
 62
    7
 10
130.15948217906839
 20
178.33333333333258
 11
109.15615228161641
 21
178.33333333333258
  0
LINE
  8
_8-0_
  6
CONTINUOUS
 62
    7
 10
129.846087437964
 20
177.83333333333303
 11
109.15615228161641
 21
177.83333333333303
  0
LINE
  8
_8-0_
  6
CONTINUOUS
 62
    7
 10
129.54878495336288
 20
177.33333333333235
 11
109.15615228161641
 21
177.33333333333292
  0
LINE
  8
_8-0_
  6
CONTINUOUS
 62
    7
 10
129.26691971215178
 20
176.8333333333328
 11
109.15615228161641
 21
176.8333333333328
  0
LINE
  8
_8-0_
  6
CONTINUOUS
 62
    7
 10
128.99990316221192
 20
176.33333333333326
 11
109.15615228161641
 21
176.33333333333326
  0
LINE
  8
_8-0_
  6
CONTINUOUS
 62
    7
 10
128.74720505520372
 20
175.83333333333314
 11
109.15615228161641
 21
175.83333333333258
  0
LINE
  8
_8-0_
  6
CONTINUOUS
 62
    7
 10
128.50834659538407
 20
175.33333333333303
 11
109.15615228161641
 21
175.33333333333303
  0
LINE
  8
_8-0_
  6
CONTINUOUS
 62
    7
 10
128.28289465083856
 20
174.83333333333235
 11
109.15615228161641
 21
174.83333333333292
  0
LINE
  8
_8-0_
  6
CONTINUOUS
 62
    7
 10
128.07045683589536
 20
174.3333333333328
 11
109.15615228161641
 21
174.3333333333328
  0
LINE
  8
_8-0_
  6
CONTINUOUS
 62
    7
 10
127.87067731326943
 20
173.83333333333326
 11
109.15615228161641
 21
173.83333333333326
  0
LINE
  8
_8-0_
  6
CONTINUOUS
 62
    7
 10
127.68323319508909
 20
173.33333333333314
 11
109.15615228161641
 21
173.33333333333258
  0
LINE
  8
_8-0_
  6
CONTINUOUS
 62
    7
 10
127.50783144564537
 20
172.83333333333303
 11
109.15615228161641
 21
172.83333333333303
  0
LINE
  8
_8-0_
  6
CONTINUOUS
 62
    7
 10
127.34420620722176
 20
172.33333333333235
 11
109.15615228161641
 21
172.33333333333292
  0
LINE
  8
_8-0_
  6
CONTINUOUS
 62
    7
 10
127.19211648497208
 20
171.8333333333328
 11
109.15615228161641
 21
171.8333333333328
  0
LINE
  8
_8-0_
  6
CONTINUOUS
 62
    7
 10
127.05134413842586
 20
171.33333333333269
 11
109.15615228161641
 21
171.33333333333326
  0
LINE
  8
_8-0_
  6
CONTINUOUS
 62
    7
 10
126.92169213647162
 20
170.83333333333314
 11
109.15615228161641
 21
170.83333333333258
  0
LINE
  8
_8-0_
  6
CONTINUOUS
 62
    7
 10
126.80298304017924
 20
170.33333333333303
 11
109.15615228161641
 21
170.33333333333303
  0
LINE
  8
_8-0_
  6
CONTINUOUS
 62
    7
 10
126.69505768389229
 20
169.83333333333348
 11
109.15615228161641
 21
169.83333333333292
  0
LINE
  8
_8-0_
  6
CONTINUOUS
 62
    7
 10
126.59777403002408
 20
169.3333333333328
 11
109.15615228161641
 21
169.3333333333328
  0
LINE
  8
_8-0_
  6
CONTINUOUS
 62
    7
 10
126.51100617705538
 20
168.83333333333269
 11
109.15615228161641
 21
168.83333333333326
  0
LINE
  8
_8-0_
  6
CONTINUOUS
 62
    7
 10
126.43464350369072
 20
168.33333333333314
 11
109.15615228161641
 21
168.33333333333258
  0
LINE
  8
_8-0_
  6
CONTINUOUS
 62
    7
 10
126.36858993493718
 20
167.83333333333303
 11
109.15615228161641
 21
167.83333333333303
  0
LINE
  8
_8-0_
  6
CONTINUOUS
 62
    7
 10
126.31276331831828
 20
167.33333333333348
 11
109.15615228161641
 21
167.33333333333292
  0
LINE
  8
_8-0_
  6
CONTINUOUS
 62
    7
 10
126.26709490046551
 20
166.8333333333328
 11
109.15615228161641
 21
166.8333333333328
  0
LINE
  8
_8-0_
  6
CONTINUOUS
 62
    7
 10
126.23152889612243
 20
166.33333333333269
 11
109.15615228161641
 21
166.33333333333326
  0
LINE
  8
_8-0_
  6
CONTINUOUS
 62
    7
 10
126.20602214313976
 20
165.83333333333258
 11
109.15615228161641
 21
165.83333333333258
  0
LINE
  8
_8-0_
  6
CONTINUOUS
 62
    7
 10
126.1905438384133
 20
165.33333333333303
 11
109.15615228161641
 21
165.33333333333303
  0
LINE
  8
_8-0_
  6
CONTINUOUS
 62
    7
 10
126.18507535096342
 20
164.83333333333235
 11
109.15615228161641
 21
164.83333333333292
  0
LINE
  8
_8-0_
  6
CONTINUOUS
 62
    7
 10
126.18961010950102
 20
164.3333333333328
 11
109.15615228161641
 21
164.3333333333328
  0
LINE
  8
_8-0_
  6
CONTINUOUS
 62
    7
 10
126.20415356288049
 20
163.83333333333269
 11
109.15615228161641
 21
163.83333333333326
  0
LINE
  8
_8-0_
  6
CONTINUOUS
 62
    7
 10
126.22872321288128
 20
163.33333333333258
 11
109.15615228161641
 21
163.33333333333258
  0
LINE
  8
_8-0_
  6
CONTINUOUS
 62
    7
 10
126.26334871980134
 20
162.83333333333303
 11
109.15615228161641
 21
162.83333333333303
  0
LINE
  8
_8-0_
  6
CONTINUOUS
 62
    7
 10
126.30807208231886
 20
162.33333333333235
 11
109.15615228161641
 21
162.33333333333292
  0
LINE
  8
_8-0_
  6
CONTINUOUS
 62
    7
 10
126.36294789421868
 20
161.8333333333328
 11
109.15615228161641
 21
161.8333333333328
  0
LINE
  8
_8-0_
  6
CONTINUOUS
 62
    7
 10
126.42804368164434
 20
161.33333333333269
 11
109.15615228161641
 21
161.33333333333326
  0
LINE
  8
_8-0_
  6
CONTINUOUS
 62
    7
 10
126.50344032582097
 20
160.83333333333258
 11
109.15615228161641
 21
160.83333333333258
  0
LINE
  8
_8-0_
  6
CONTINUOUS
 62
    7
 10
126.58923257752747
 20
160.33333333333303
 11
109.15615228161641
 21
160.33333333333303
  0
LINE
  8
_8-0_
  6
CONTINUOUS
 62
    7
 10
126.68552967112987
 20
159.83333333333235
 11
109.15615228161641
 21
159.83333333333292
  0
LINE
  8
_8-0_
  6
CONTINUOUS
 62
    7
 10
126.79245604775701
 20
159.3333333333328
 11
109.15615228161641
 21
159.3333333333328
  0
LINE
  8
_8-0_
  6
CONTINUOUS
 62
    7
 10
126.91015219920757
 20
158.83333333333269
 11
109.15615228161641
 21
158.83333333333326
  0
LINE
  8
_8-0_
  6
CONTINUOUS
 62
    7
 10
127.03877564656239
 20
158.33333333333258
 11
109.15615228161641
 21
158.33333333333258
  0
LINE
  8
_8-0_
  6
CONTINUOUS
 62
    7
 10
127.17850207028846
 20
157.83333333333303
 11
109.15615228161641
 21
157.83333333333303
  0
LINE
  8
_8-0_
  6
CONTINUOUS
 62
    7
 10
127.32952661195668
 20
157.33333333333235
 11
109.15615228161641
 21
157.33333333333292
  0
LINE
  8
_8-0_
  6
CONTINUOUS
 62
    7
 10
199.15615228161641
 20
206.8333333333328
 11
109.15615228161641
 21
206.8333333333328
  0
LINE
  8
_8-0_
  6
CONTINUOUS
 62
    7
 10
198.65615228161573
 20
206.33333333333326
 11
109.15615228161641
 21
206.33333333333326
  0
LINE
  8
_8-0_
  6
CONTINUOUS
 62
    7
 10
198.15615228161619
 20
205.83333333333258
 11
109.15615228161641
 21
205.83333333333258
  0
LINE
  8
_8-0_
  6
CONTINUOUS
 62
    7
 10
197.6561522816155
 20
205.33333333333303
 11
109.15615228161641
 21
205.33333333333303
  0
LINE
  8
_8-0_
  6
CONTINUOUS
 62
    7
 10
197.15615228161596
 20
204.83333333333235
 11
109.15615228161641
 21
204.83333333333292
  0
LINE
  8
_8-0_
  6
CONTINUOUS
 62
    7
 10
196.65615228161641
 20
204.3333333333328
 11
109.15615228161641
 21
204.3333333333328
  0
LINE
  8
_8-0_
  6
CONTINUOUS
 62
    7
 10
196.15615228161573
 20
203.83333333333326
 11
109.15615228161641
 21
203.83333333333326
  0
LINE
  8
_8-0_
  6
CONTINUOUS
 62
    7
 10
195.65615228161619
 20
203.33333333333258
 11
109.15615228161641
 21
203.33333333333258
  0
LINE
  8
_8-0_
  6
CONTINUOUS
 62
    7
 10
195.1561522816155
 20
202.83333333333303
 11
109.15615228161641
 21
202.83333333333303
  0
LINE
  8
_8-0_
  6
CONTINUOUS
 62
    7
 10
194.65615228161596
 20
202.33333333333292
 11
109.15615228161641
 21
202.33333333333292
  0
LINE
  8
_8-0_
  6
CONTINUOUS
 62
    7
 10
194.15615228161585
 20
201.8333333333328
 11
109.15615228161641
 21
201.8333333333328
  0
LINE
  8
_8-0_
  6
CONTINUOUS
 62
    7
 10
193.65615228161573
 20
201.33333333333269
 11
109.15615228161641
 21
201.33333333333326
  0
LINE
  8
_8-0_
  6
CONTINUOUS
 62
    7
 10
193.15615228161619
 20
200.83333333333258
 11
109.15615228161641
 21
200.83333333333258
  0
LINE
  8
_8-0_
  6
CONTINUOUS
 62
    7
 10
192.65615228161607
 20
200.33333333333303
 11
109.15615228161641
 21
200.33333333333303
  0
LINE
  8
_8-0_
  6
CONTINUOUS
 62
    7
 10
192.15615228161596
 20
199.83333333333292
 11
109.15615228161641
 21
199.83333333333292
  0
LINE
  8
_8-0_
  6
CONTINUOUS
 62
    7
 10
191.65615228161585
 20
199.3333333333328
 11
109.15615228161641
 21
199.3333333333328
  0
LINE
  8
_8-0_
  6
CONTINUOUS
 62
    7
 10
191.15615228161573
 20
198.83333333333269
 11
109.15615228161641
 21
198.83333333333326
  0
LINE
  8
_8-0_
  6
CONTINUOUS
 62
    7
 10
190.65615228161619
 20
198.33333333333258
 11
109.15615228161641
 21
198.33333333333258
  0
LINE
  8
_8-0_
  6
CONTINUOUS
 62
    7
 10
190.15615228161607
 20
197.83333333333303
 11
109.15615228161641
 21
197.83333333333303
  0
LINE
  8
_8-0_
  6
CONTINUOUS
 62
    7
 10
189.65615228161596
 20
197.33333333333235
 11
109.15615228161641
 21
197.33333333333292
  0
LINE
  8
_8-0_
  6
CONTINUOUS
 62
    7
 10
189.15615228161641
 20
196.8333333333328
 11
109.15615228161641
 21
196.8333333333328
  0
LINE
  8
_8-0_
  6
CONTINUOUS
 62
    7
 10
188.65615228161573
 20
196.33333333333326
 11
109.15615228161641
 21
196.33333333333326
  0
LINE
  8
_8-0_
  6
CONTINUOUS
 62
    7
 10
188.15615228161619
 20
195.83333333333258
 11
109.15615228161641
 21
195.83333333333258
  0
LINE
  8
_8-0_
  6
CONTINUOUS
 62
    7
 10
187.6561522816155
 20
195.33333333333303
 11
109.15615228161641
 21
195.33333333333303
  0
LINE
  8
_8-0_
  6
CONTINUOUS
 62
    7
 10
187.15615228161596
 20
194.83333333333235
 11
109.15615228161641
 21
194.83333333333292
  0
LINE
  8
_8-0_
  6
CONTINUOUS
 62
    7
 10
186.65615228161585
 20
194.3333333333328
 11
109.15615228161641
 21
194.3333333333328
  0
LINE
  8
_8-0_
  6
CONTINUOUS
 62
    7
 10
186.15615228161573
 20
193.83333333333326
 11
109.15615228161641
 21
193.83333333333326
  0
LINE
  8
_8-0_
  6
CONTINUOUS
 62
    7
 10
185.65615228161619
 20
193.33333333333258
 11
109.15615228161641
 21
193.33333333333258
  0
LINE
  8
_8-0_
  6
CONTINUOUS
 62
    7
 10
185.1561522816155
 20
192.83333333333303
 11
109.15615228161641
 21
192.83333333333303
  0
LINE
  8
_8-0_
  6
CONTINUOUS
 62
    7
 10
184.65615228161596
 20
192.33333333333235
 11
109.15615228161641
 21
192.33333333333292
  0
LINE
  8
_8-0_
  6
CONTINUOUS
 62
    7
 10
184.15615228161641
 20
191.8333333333328
 11
109.15615228161641
 21
191.8333333333328
  0
LINE
  8
_8-0_
  6
CONTINUOUS
 62
    7
 10
183.65615228161573
 20
191.33333333333269
 11
109.15615228161641
 21
191.33333333333326
  0
LINE
  8
_8-0_
  6
CONTINUOUS
 62
    7
 10
183.15615228161619
 20
190.83333333333258
 11
109.15615228161641
 21
190.83333333333258
  0
LINE
  8
_8-0_
  6
CONTINUOUS
 62
    7
 10
182.6561522816155
 20
190.33333333333303
 11
109.15615228161641
 21
190.33333333333303
  0
LINE
  8
_8-0_
  6
CONTINUOUS
 62
    7
 10
182.15615228161596
 20
189.83333333333292
 11
109.15615228161641
 21
189.83333333333292
  0
LINE
  8
_8-0_
  6
CONTINUOUS
 62
    7
 10
181.65615228161585
 20
189.3333333333328
 11
156.00931077856785
 21
189.3333333333328
  0
LINE
  8
_8-0_
  6
CONTINUOUS
 62
    7
 10
146.34966045132956
 20
189.3333333333328
 11
109.15615228161641
 21
189.3333333333328
  0
LINE
  8
_8-0_
  6
CONTINUOUS
 62
    7
 10
181.15615228161573
 20
188.83333333333269
 11
158.07880039574172
 21
188.83333333333326
  0
LINE
  8
_8-0_
  6
CONTINUOUS
 62
    7
 10
144.28017083415682
 20
188.83333333333326
 11
109.15615228161641
 21
188.83333333333326
  0
LINE
  8
_8-0_
  6
CONTINUOUS
 62
    7
 10
180.65615228161619
 20
188.33333333333258
 11
159.62779182257464
 21
188.33333333333258
  0
LINE
  8
_8-0_
  6
CONTINUOUS
 62
    7
 10
142.73117940732334
 20
188.33333333333258
 11
109.15615228161641
 21
188.33333333333258
  0
LINE
  8
_8-0_
  6
CONTINUOUS
 62
    7
 10
180.15615228161607
 20
187.83333333333303
 11
160.90816543860115
 21
187.83333333333303
  0
LINE
  8
_8-0_
  6
CONTINUOUS
 62
    7
 10
141.4508057912974
 20
187.83333333333303
 11
109.15615228161641
 21
187.83333333333303
  0
LINE
  8
_8-0_
  6
CONTINUOUS
 62
    7
 10
179.65615228161596
 20
187.33333333333292
 11
162.01556167801073
 21
187.33333333333292
  0
LINE
  8
_8-0_
  6
CONTINUOUS
 62
    7
 10
140.34340955188725
 20
187.33333333333292
 11
109.15615228161641
 21
187.33333333333292
  0
LINE
  8
_8-0_
  6
CONTINUOUS
 62
    7
 10
179.15615228161585
 20
186.8333333333328
 11
162.99870207704203
 21
186.8333333333328
  0
LINE
  8
_8-0_
  6
CONTINUOUS
 62
    7
 10
139.36026915285652
 20
186.8333333333328
 11
109.15615228161641
 21
186.8333333333328
  0
LINE
  8
_8-0_
  6
CONTINUOUS
 62
    7
 10
178.65615228161573
 20
186.33333333333269
 11
163.88646051502405
 21
186.33333333333326
  0
LINE
  8
_8-0_
  6
CONTINUOUS
 62
    7
 10
138.47251071487449
 20
186.33333333333326
 11
109.15615228161641
 21
186.33333333333326
  0
LINE
  8
_8-0_
  6
CONTINUOUS
 62
    7
 10
178.15615228161619
 20
185.83333333333258
 11
164.69764171866586
 21
185.83333333333258
  0
LINE
  8
_8-0_
  6
CONTINUOUS
 62
    7
 10
137.66132951123211
 20
185.83333333333258
 11
109.15615228161641
 21
185.83333333333258
  0
LINE
  8
_8-0_
  6
CONTINUOUS
 62
    7
 10
177.65615228161607
 20
185.33333333333303
 11
165.44531464020395
 21
185.33333333333303
  0
LINE
  8
_8-0_
  6
CONTINUOUS
 62
    7
 10
136.91365658969403
 20
185.33333333333303
 11
109.15615228161641
 21
185.33333333333303
  0
LINE
  8
_8-0_
  6
CONTINUOUS
 62
    7
 10
177.15615228161596
 20
184.83333333333235
 11
166.13900469515784
 21
184.83333333333292
  0
LINE
  8
_8-0_
  6
CONTINUOUS
 62
    7
 10
136.21996653474071
 20
184.83333333333292
 11
109.15615228161641
 21
184.83333333333292
  0
LINE
  8
_8-0_
  6
CONTINUOUS
 62
    7
 10
176.65615228161641
 20
184.3333333333328
 11
166.78591199783568
 21
184.3333333333328
  0
LINE
  8
_8-0_
  6
CONTINUOUS
 62
    7
 10
135.57305923206286
 20
184.3333333333328
 11
109.15615228161641
 21
184.3333333333328
  0
LINE
  8
_8-0_
  6
CONTINUOUS
 62
    7
 10
176.15615228161573
 20
183.83333333333326
 11
167.39163777861336
 21
183.83333333333269
  0
LINE
  8
_8-0_
  6
CONTINUOUS
 62
    7
 10
134.96733345128519
 20
183.83333333333269
 11
109.15615228161641
 21
183.83333333333326
  0
LINE
  8
_8-0_
  6
CONTINUOUS
 62
    7
 10
175.65615228161619
 20
183.33333333333258
 11
167.96064204444292
 21
183.33333333333258
  0
LINE
  8
_8-0_
  6
CONTINUOUS
 62
    7
 10
134.39832918545562
 20
183.33333333333258
 11
109.15615228161641
 21
183.33333333333258
  0
LINE
  8
_8-0_
  6
CONTINUOUS
 62
    7
 10
175.1561522816155
 20
182.83333333333303
 11
168.49654496243829
 21
182.83333333333246
  0
LINE
  8
_8-0_
  6
CONTINUOUS
 62
    7
 10
133.86242626745968
 20
182.83333333333303
 11
109.15615228161641
 21
182.83333333333303
  0
LINE
  8
_8-0_
  6
CONTINUOUS
 62
    7
 10
174.65615228161596
 20
182.33333333333235
 11
169.00233268767579
 21
182.33333333333235
  0
LINE
  8
_8-0_
  6
CONTINUOUS
 62
    7
 10
133.35663854222275
 20
182.33333333333235
 11
109.15615228161641
 21
182.33333333333292
  0
LINE
  8
_8-0_
  6
CONTINUOUS
 62
    7
 10
174.15615228161641
 20
181.8333333333328
 11
169.48050228373347
 21
181.8333333333328
  0
LINE
  8
_8-0_
  6
CONTINUOUS
 62
    7
 10
132.8784689461645
 20
181.8333333333328
 11
109.15615228161641
 21
181.8333333333328
  0
LINE
  8
_8-0_
  6
CONTINUOUS
 62
    7
 10
173.65615228161573
 20
181.33333333333326
 11
169.93316643884214
 21
181.33333333333326
  0
LINE
  8
_8-0_
  6
CONTINUOUS
 62
    7
 10
132.42580479105641
 20
181.33333333333326
 11
109.15615228161641
 21
181.33333333333326
  0
LINE
  8
_8-0_
  6
CONTINUOUS
 62
    7
 10
173.15615228161619
 20
180.83333333333258
 11
170.36213083863458
 21
180.83333333333258
  0
LINE
  8
_8-0_
  6
CONTINUOUS
 62
    7
 10
131.99684039126396
 20
180.83333333333258
 11
109.15615228161641
 21
180.83333333333258
  0
LINE
  8
_8-0_
  6
CONTINUOUS
 62
    7
 10
172.6561522816155
 20
180.33333333333303
 11
170.76895245585945
 21
180.33333333333303
  0
LINE
  8
_8-0_
  6
CONTINUOUS
 62
    7
 10
131.59001877403853
 20
180.33333333333303
 11
109.15615228161641
 21
180.33333333333303
  0
LINE
  8
_8-0_
  6
CONTINUOUS
 62
    7
 10
172.15615228161596
 20
179.83333333333292
 11
171.15498421809889
 21
179.83333333333292
  0
LINE
  8
_8-0_
  6
CONTINUOUS
 62
    7
 10
131.20398701179909
 20
179.83333333333292
 11
109.15615228161641
 21
179.83333333333292
  0
LINE
  8
_8-0_
  6
CONTINUOUS
 62
    7
 10
171.65615228161641
 20
179.3333333333328
 11
171.52140975643078
 21
179.3333333333328
  0
LINE
  8
_8-0_
  6
CONTINUOUS
 62
    7
 10
130.83756147346776
 20
179.3333333333328
 11
109.15615228161641
 21
179.3333333333328
  0
LINE
  8
_8-0_
  6
CONTINUOUS
 62
    7
 10
130.48970042729877
 20
178.83333333333269
 11
109.15615228161641
 21
178.83333333333326
  0
LINE
  8
_8-0_
  6
CONTINUOUS
 62
    7
 10
130.15948217906839
 20
178.33333333333258
 11
109.15615228161641
 21
178.33333333333258
  0
LINE
  8
_8-0_
  6
CONTINUOUS
 62
    7
 10
129.846087437964
 20
177.83333333333303
 11
109.15615228161641
 21
177.83333333333303
  0
LINE
  8
_8-0_
  6
CONTINUOUS
 62
    7
 10
129.54878495336288
 20
177.33333333333235
 11
109.15615228161641
 21
177.33333333333292
  0
LINE
  8
_8-0_
  6
CONTINUOUS
 62
    7
 10
129.26691971215178
 20
176.8333333333328
 11
109.15615228161641
 21
176.8333333333328
  0
LINE
  8
_8-0_
  6
CONTINUOUS
 62
    7
 10
128.99990316221192
 20
176.33333333333326
 11
109.15615228161641
 21
176.33333333333326
  0
LINE
  8
_8-0_
  6
CONTINUOUS
 62
    7
 10
128.74720505520372
 20
175.83333333333314
 11
109.15615228161641
 21
175.83333333333258
  0
LINE
  8
_8-0_
  6
CONTINUOUS
 62
    7
 10
128.50834659538407
 20
175.33333333333303
 11
109.15615228161641
 21
175.33333333333303
  0
LINE
  8
_8-0_
  6
CONTINUOUS
 62
    7
 10
128.28289465083856
 20
174.83333333333235
 11
109.15615228161641
 21
174.83333333333292
  0
LINE
  8
_8-0_
  6
CONTINUOUS
 62
    7
 10
128.07045683589536
 20
174.3333333333328
 11
109.15615228161641
 21
174.3333333333328
  0
LINE
  8
_8-0_
  6
CONTINUOUS
 62
    7
 10
127.87067731326943
 20
173.83333333333326
 11
109.15615228161641
 21
173.83333333333326
  0
LINE
  8
_8-0_
  6
CONTINUOUS
 62
    7
 10
127.68323319508909
 20
173.33333333333314
 11
109.15615228161641
 21
173.33333333333258
  0
LINE
  8
_8-0_
  6
CONTINUOUS
 62
    7
 10
127.50783144564537
 20
172.83333333333303
 11
109.15615228161641
 21
172.83333333333303
  0
LINE
  8
_8-0_
  6
CONTINUOUS
 62
    7
 10
127.34420620722176
 20
172.33333333333235
 11
109.15615228161641
 21
172.33333333333292
  0
LINE
  8
_8-0_
  6
CONTINUOUS
 62
    7
 10
127.19211648497208
 20
171.8333333333328
 11
109.15615228161641
 21
171.8333333333328
  0
LINE
  8
_8-0_
  6
CONTINUOUS
 62
    7
 10
127.05134413842586
 20
171.33333333333269
 11
109.15615228161641
 21
171.33333333333326
  0
LINE
  8
_8-0_
  6
CONTINUOUS
 62
    7
 10
126.92169213647162
 20
170.83333333333314
 11
109.15615228161641
 21
170.83333333333258
  0
LINE
  8
_8-0_
  6
CONTINUOUS
 62
    7
 10
126.80298304017924
 20
170.33333333333303
 11
109.15615228161641
 21
170.33333333333303
  0
LINE
  8
_8-0_
  6
CONTINUOUS
 62
    7
 10
126.69505768389229
 20
169.83333333333348
 11
109.15615228161641
 21
169.83333333333292
  0
LINE
  8
_8-0_
  6
CONTINUOUS
 62
    7
 10
126.59777403002408
 20
169.3333333333328
 11
109.15615228161641
 21
169.3333333333328
  0
LINE
  8
_8-0_
  6
CONTINUOUS
 62
    7
 10
126.51100617705538
 20
168.83333333333269
 11
109.15615228161641
 21
168.83333333333326
  0
LINE
  8
_8-0_
  6
CONTINUOUS
 62
    7
 10
126.43464350369072
 20
168.33333333333314
 11
109.15615228161641
 21
168.33333333333258
  0
LINE
  8
_8-0_
  6
CONTINUOUS
 62
    7
 10
126.36858993493718
 20
167.83333333333303
 11
109.15615228161641
 21
167.83333333333303
  0
LINE
  8
_8-0_
  6
CONTINUOUS
 62
    7
 10
126.31276331831828
 20
167.33333333333348
 11
109.15615228161641
 21
167.33333333333292
  0
LINE
  8
_8-0_
  6
CONTINUOUS
 62
    7
 10
126.26709490046551
 20
166.8333333333328
 11
109.15615228161641
 21
166.8333333333328
  0
LINE
  8
_8-0_
  6
CONTINUOUS
 62
    7
 10
126.23152889612243
 20
166.33333333333269
 11
109.15615228161641
 21
166.33333333333326
  0
LINE
  8
_8-0_
  6
CONTINUOUS
 62
    7
 10
126.20602214313976
 20
165.83333333333258
 11
109.15615228161641
 21
165.83333333333258
  0
LINE
  8
_8-0_
  6
CONTINUOUS
 62
    7
 10
126.1905438384133
 20
165.33333333333303
 11
109.15615228161641
 21
165.33333333333303
  0
LINE
  8
_8-0_
  6
CONTINUOUS
 62
    7
 10
126.18507535096342
 20
164.83333333333235
 11
109.15615228161641
 21
164.83333333333292
  0
LINE
  8
_8-0_
  6
CONTINUOUS
 62
    7
 10
126.18961010950102
 20
164.3333333333328
 11
109.15615228161641
 21
164.3333333333328
  0
LINE
  8
_8-0_
  6
CONTINUOUS
 62
    7
 10
126.20415356288049
 20
163.83333333333269
 11
109.15615228161641
 21
163.83333333333326
  0
LINE
  8
_8-0_
  6
CONTINUOUS
 62
    7
 10
126.22872321288128
 20
163.33333333333258
 11
109.15615228161641
 21
163.33333333333258
  0
LINE
  8
_8-0_
  6
CONTINUOUS
 62
    7
 10
126.26334871980134
 20
162.83333333333303
 11
109.15615228161641
 21
162.83333333333303
  0
LINE
  8
_8-0_
  6
CONTINUOUS
 62
    7
 10
126.30807208231886
 20
162.33333333333235
 11
109.15615228161641
 21
162.33333333333292
  0
LINE
  8
_8-0_
  6
CONTINUOUS
 62
    7
 10
126.36294789421868
 20
161.8333333333328
 11
109.15615228161641
 21
161.8333333333328
  0
LINE
  8
_8-0_
  6
CONTINUOUS
 62
    7
 10
126.42804368164434
 20
161.33333333333269
 11
109.15615228161641
 21
161.33333333333326
  0
LINE
  8
_8-0_
  6
CONTINUOUS
 62
    7
 10
126.50344032582097
 20
160.83333333333258
 11
109.15615228161641
 21
160.83333333333258
  0
LINE
  8
_8-0_
  6
CONTINUOUS
 62
    7
 10
126.58923257752747
 20
160.33333333333303
 11
109.15615228161641
 21
160.33333333333303
  0
LINE
  8
_8-0_
  6
CONTINUOUS
 62
    7
 10
126.68552967112987
 20
159.83333333333235
 11
109.15615228161641
 21
159.83333333333292
  0
LINE
  8
_8-0_
  6
CONTINUOUS
 62
    7
 10
126.79245604775701
 20
159.3333333333328
 11
109.15615228161641
 21
159.3333333333328
  0
LINE
  8
_8-0_
  6
CONTINUOUS
 62
    7
 10
126.91015219920757
 20
158.83333333333269
 11
109.15615228161641
 21
158.83333333333326
  0
LINE
  8
_8-0_
  6
CONTINUOUS
 62
    7
 10
127.03877564656239
 20
158.33333333333258
 11
109.15615228161641
 21
158.33333333333258
  0
LINE
  8
_8-0_
  6
CONTINUOUS
 62
    7
 10
127.17850207028846
 20
157.83333333333303
 11
109.15615228161641
 21
157.83333333333303
  0
LINE
  8
_8-0_
  6
CONTINUOUS
 62
    7
 10
127.32952661195668
 20
157.33333333333235
 11
109.15615228161641
 21
157.33333333333292
  0
LINE
  8
_8-0_
  6
CONTINUOUS
 62
    7
 10
199.15615228161641
 20
206.8333333333328
 11
109.15615228161641
 21
206.8333333333328
  0
LINE
  8
_8-0_
  6
CONTINUOUS
 62
    7
 10
198.65615228161573
 20
206.33333333333326
 11
109.15615228161641
 21
206.33333333333326
  0
LINE
  8
_8-0_
  6
CONTINUOUS
 62
    7
 10
198.15615228161619
 20
205.83333333333258
 11
109.15615228161641
 21
205.83333333333258
  0
LINE
  8
_8-0_
  6
CONTINUOUS
 62
    7
 10
197.6561522816155
 20
205.33333333333303
 11
109.15615228161641
 21
205.33333333333303
  0
LINE
  8
_8-0_
  6
CONTINUOUS
 62
    7
 10
197.15615228161596
 20
204.83333333333235
 11
109.15615228161641
 21
204.83333333333292
  0
LINE
  8
_8-0_
  6
CONTINUOUS
 62
    7
 10
196.65615228161641
 20
204.3333333333328
 11
109.15615228161641
 21
204.3333333333328
  0
LINE
  8
_8-0_
  6
CONTINUOUS
 62
    7
 10
196.15615228161573
 20
203.83333333333326
 11
109.15615228161641
 21
203.83333333333326
  0
LINE
  8
_8-0_
  6
CONTINUOUS
 62
    7
 10
195.65615228161619
 20
203.33333333333258
 11
109.15615228161641
 21
203.33333333333258
  0
LINE
  8
_8-0_
  6
CONTINUOUS
 62
    7
 10
195.1561522816155
 20
202.83333333333303
 11
109.15615228161641
 21
202.83333333333303
  0
LINE
  8
_8-0_
  6
CONTINUOUS
 62
    7
 10
194.65615228161596
 20
202.33333333333292
 11
109.15615228161641
 21
202.33333333333292
  0
LINE
  8
_8-0_
  6
CONTINUOUS
 62
    7
 10
194.15615228161585
 20
201.8333333333328
 11
109.15615228161641
 21
201.8333333333328
  0
LINE
  8
_8-0_
  6
CONTINUOUS
 62
    7
 10
193.65615228161573
 20
201.33333333333269
 11
109.15615228161641
 21
201.33333333333326
  0
LINE
  8
_8-0_
  6
CONTINUOUS
 62
    7
 10
193.15615228161619
 20
200.83333333333258
 11
109.15615228161641
 21
200.83333333333258
  0
LINE
  8
_8-0_
  6
CONTINUOUS
 62
    7
 10
192.65615228161607
 20
200.33333333333303
 11
109.15615228161641
 21
200.33333333333303
  0
LINE
  8
_8-0_
  6
CONTINUOUS
 62
    7
 10
192.15615228161596
 20
199.83333333333292
 11
109.15615228161641
 21
199.83333333333292
  0
LINE
  8
_8-0_
  6
CONTINUOUS
 62
    7
 10
191.65615228161585
 20
199.3333333333328
 11
109.15615228161641
 21
199.3333333333328
  0
LINE
  8
_8-0_
  6
CONTINUOUS
 62
    7
 10
191.15615228161573
 20
198.83333333333269
 11
109.15615228161641
 21
198.83333333333326
  0
LINE
  8
_8-0_
  6
CONTINUOUS
 62
    7
 10
190.65615228161619
 20
198.33333333333258
 11
109.15615228161641
 21
198.33333333333258
  0
LINE
  8
_8-0_
  6
CONTINUOUS
 62
    7
 10
190.15615228161607
 20
197.83333333333303
 11
109.15615228161641
 21
197.83333333333303
  0
LINE
  8
_8-0_
  6
CONTINUOUS
 62
    7
 10
189.65615228161596
 20
197.33333333333235
 11
109.15615228161641
 21
197.33333333333292
  0
LINE
  8
_8-0_
  6
CONTINUOUS
 62
    7
 10
189.15615228161641
 20
196.8333333333328
 11
109.15615228161641
 21
196.8333333333328
  0
LINE
  8
_8-0_
  6
CONTINUOUS
 62
    7
 10
188.65615228161573
 20
196.33333333333326
 11
109.15615228161641
 21
196.33333333333326
  0
LINE
  8
_8-0_
  6
CONTINUOUS
 62
    7
 10
188.15615228161619
 20
195.83333333333258
 11
109.15615228161641
 21
195.83333333333258
  0
LINE
  8
_8-0_
  6
CONTINUOUS
 62
    7
 10
187.6561522816155
 20
195.33333333333303
 11
109.15615228161641
 21
195.33333333333303
  0
LINE
  8
_8-0_
  6
CONTINUOUS
 62
    7
 10
187.15615228161596
 20
194.83333333333235
 11
109.15615228161641
 21
194.83333333333292
  0
LINE
  8
_8-0_
  6
CONTINUOUS
 62
    7
 10
186.65615228161585
 20
194.3333333333328
 11
109.15615228161641
 21
194.3333333333328
  0
LINE
  8
_8-0_
  6
CONTINUOUS
 62
    7
 10
186.15615228161573
 20
193.83333333333326
 11
109.15615228161641
 21
193.83333333333326
  0
LINE
  8
_8-0_
  6
CONTINUOUS
 62
    7
 10
185.65615228161619
 20
193.33333333333258
 11
109.15615228161641
 21
193.33333333333258
  0
LINE
  8
_8-0_
  6
CONTINUOUS
 62
    7
 10
185.1561522816155
 20
192.83333333333303
 11
109.15615228161641
 21
192.83333333333303
  0
LINE
  8
_8-0_
  6
CONTINUOUS
 62
    7
 10
184.65615228161596
 20
192.33333333333235
 11
109.15615228161641
 21
192.33333333333292
  0
LINE
  8
_8-0_
  6
CONTINUOUS
 62
    7
 10
184.15615228161641
 20
191.8333333333328
 11
109.15615228161641
 21
191.8333333333328
  0
LINE
  8
_8-0_
  6
CONTINUOUS
 62
    7
 10
183.65615228161573
 20
191.33333333333269
 11
109.15615228161641
 21
191.33333333333326
  0
LINE
  8
_8-0_
  6
CONTINUOUS
 62
    7
 10
183.15615228161619
 20
190.83333333333258
 11
109.15615228161641
 21
190.83333333333258
  0
LINE
  8
_8-0_
  6
CONTINUOUS
 62
    7
 10
182.6561522816155
 20
190.33333333333303
 11
109.15615228161641
 21
190.33333333333303
  0
LINE
  8
_8-0_
  6
CONTINUOUS
 62
    7
 10
182.15615228161596
 20
189.83333333333292
 11
109.15615228161641
 21
189.83333333333292
  0
LINE
  8
_8-0_
  6
CONTINUOUS
 62
    7
 10
181.65615228161585
 20
189.3333333333328
 11
156.00931077856785
 21
189.3333333333328
  0
LINE
  8
_8-0_
  6
CONTINUOUS
 62
    7
 10
146.34966045132956
 20
189.3333333333328
 11
109.15615228161641
 21
189.3333333333328
  0
LINE
  8
_8-0_
  6
CONTINUOUS
 62
    7
 10
181.15615228161573
 20
188.83333333333269
 11
158.07880039574172
 21
188.83333333333326
  0
LINE
  8
_8-0_
  6
CONTINUOUS
 62
    7
 10
144.28017083415682
 20
188.83333333333326
 11
109.15615228161641
 21
188.83333333333326
  0
LINE
  8
_8-0_
  6
CONTINUOUS
 62
    7
 10
180.65615228161619
 20
188.33333333333258
 11
159.62779182257464
 21
188.33333333333258
  0
LINE
  8
_8-0_
  6
CONTINUOUS
 62
    7
 10
142.73117940732334
 20
188.33333333333258
 11
109.15615228161641
 21
188.33333333333258
  0
LINE
  8
_8-0_
  6
CONTINUOUS
 62
    7
 10
180.15615228161607
 20
187.83333333333303
 11
160.90816543860115
 21
187.83333333333303
  0
LINE
  8
_8-0_
  6
CONTINUOUS
 62
    7
 10
141.4508057912974
 20
187.83333333333303
 11
109.15615228161641
 21
187.83333333333303
  0
LINE
  8
_8-0_
  6
CONTINUOUS
 62
    7
 10
179.65615228161596
 20
187.33333333333292
 11
162.01556167801073
 21
187.33333333333292
  0
LINE
  8
_8-0_
  6
CONTINUOUS
 62
    7
 10
140.34340955188725
 20
187.33333333333292
 11
109.15615228161641
 21
187.33333333333292
  0
LINE
  8
_8-0_
  6
CONTINUOUS
 62
    7
 10
179.15615228161585
 20
186.8333333333328
 11
162.99870207704203
 21
186.8333333333328
  0
LINE
  8
_8-0_
  6
CONTINUOUS
 62
    7
 10
139.36026915285652
 20
186.8333333333328
 11
109.15615228161641
 21
186.8333333333328
  0
LINE
  8
_8-0_
  6
CONTINUOUS
 62
    7
 10
178.65615228161573
 20
186.33333333333269
 11
163.88646051502405
 21
186.33333333333326
  0
LINE
  8
_8-0_
  6
CONTINUOUS
 62
    7
 10
138.47251071487449
 20
186.33333333333326
 11
109.15615228161641
 21
186.33333333333326
  0
LINE
  8
_8-0_
  6
CONTINUOUS
 62
    7
 10
178.15615228161619
 20
185.83333333333258
 11
164.69764171866586
 21
185.83333333333258
  0
LINE
  8
_8-0_
  6
CONTINUOUS
 62
    7
 10
137.66132951123211
 20
185.83333333333258
 11
109.15615228161641
 21
185.83333333333258
  0
LINE
  8
_8-0_
  6
CONTINUOUS
 62
    7
 10
177.65615228161607
 20
185.33333333333303
 11
165.44531464020395
 21
185.33333333333303
  0
LINE
  8
_8-0_
  6
CONTINUOUS
 62
    7
 10
136.91365658969403
 20
185.33333333333303
 11
109.15615228161641
 21
185.33333333333303
  0
LINE
  8
_8-0_
  6
CONTINUOUS
 62
    7
 10
177.15615228161596
 20
184.83333333333235
 11
166.13900469515784
 21
184.83333333333292
  0
LINE
  8
_8-0_
  6
CONTINUOUS
 62
    7
 10
136.21996653474071
 20
184.83333333333292
 11
109.15615228161641
 21
184.83333333333292
  0
LINE
  8
_8-0_
  6
CONTINUOUS
 62
    7
 10
176.65615228161641
 20
184.3333333333328
 11
166.78591199783568
 21
184.3333333333328
  0
LINE
  8
_8-0_
  6
CONTINUOUS
 62
    7
 10
135.57305923206286
 20
184.3333333333328
 11
109.15615228161641
 21
184.3333333333328
  0
LINE
  8
_8-0_
  6
CONTINUOUS
 62
    7
 10
176.15615228161573
 20
183.83333333333326
 11
167.39163777861336
 21
183.83333333333269
  0
LINE
  8
_8-0_
  6
CONTINUOUS
 62
    7
 10
134.96733345128519
 20
183.83333333333269
 11
109.15615228161641
 21
183.83333333333326
  0
LINE
  8
_8-0_
  6
CONTINUOUS
 62
    7
 10
175.65615228161619
 20
183.33333333333258
 11
167.96064204444292
 21
183.33333333333258
  0
LINE
  8
_8-0_
  6
CONTINUOUS
 62
    7
 10
134.39832918545562
 20
183.33333333333258
 11
109.15615228161641
 21
183.33333333333258
  0
LINE
  8
_8-0_
  6
CONTINUOUS
 62
    7
 10
175.1561522816155
 20
182.83333333333303
 11
168.49654496243829
 21
182.83333333333246
  0
LINE
  8
_8-0_
  6
CONTINUOUS
 62
    7
 10
133.86242626745968
 20
182.83333333333303
 11
109.15615228161641
 21
182.83333333333303
  0
LINE
  8
_8-0_
  6
CONTINUOUS
 62
    7
 10
174.65615228161596
 20
182.33333333333235
 11
169.00233268767579
 21
182.33333333333235
  0
LINE
  8
_8-0_
  6
CONTINUOUS
 62
    7
 10
133.35663854222275
 20
182.33333333333235
 11
109.15615228161641
 21
182.33333333333292
  0
LINE
  8
_8-0_
  6
CONTINUOUS
 62
    7
 10
174.15615228161641
 20
181.8333333333328
 11
169.48050228373347
 21
181.8333333333328
  0
LINE
  8
_8-0_
  6
CONTINUOUS
 62
    7
 10
132.8784689461645
 20
181.8333333333328
 11
109.15615228161641
 21
181.8333333333328
  0
LINE
  8
_8-0_
  6
CONTINUOUS
 62
    7
 10
173.65615228161573
 20
181.33333333333326
 11
169.93316643884214
 21
181.33333333333326
  0
LINE
  8
_8-0_
  6
CONTINUOUS
 62
    7
 10
132.42580479105641
 20
181.33333333333326
 11
109.15615228161641
 21
181.33333333333326
  0
LINE
  8
_8-0_
  6
CONTINUOUS
 62
    7
 10
173.15615228161619
 20
180.83333333333258
 11
170.36213083863458
 21
180.83333333333258
  0
LINE
  8
_8-0_
  6
CONTINUOUS
 62
    7
 10
131.99684039126396
 20
180.83333333333258
 11
109.15615228161641
 21
180.83333333333258
  0
LINE
  8
_8-0_
  6
CONTINUOUS
 62
    7
 10
172.6561522816155
 20
180.33333333333303
 11
170.76895245585945
 21
180.33333333333303
  0
LINE
  8
_8-0_
  6
CONTINUOUS
 62
    7
 10
131.59001877403853
 20
180.33333333333303
 11
109.15615228161641
 21
180.33333333333303
  0
LINE
  8
_8-0_
  6
CONTINUOUS
 62
    7
 10
172.15615228161596
 20
179.83333333333292
 11
171.15498421809889
 21
179.83333333333292
  0
LINE
  8
_8-0_
  6
CONTINUOUS
 62
    7
 10
131.20398701179909
 20
179.83333333333292
 11
109.15615228161641
 21
179.83333333333292
  0
LINE
  8
_8-0_
  6
CONTINUOUS
 62
    7
 10
171.65615228161641
 20
179.3333333333328
 11
171.52140975643078
 21
179.3333333333328
  0
LINE
  8
_8-0_
  6
CONTINUOUS
 62
    7
 10
130.83756147346776
 20
179.3333333333328
 11
109.15615228161641
 21
179.3333333333328
  0
LINE
  8
_8-0_
  6
CONTINUOUS
 62
    7
 10
130.48970042729877
 20
178.83333333333269
 11
109.15615228161641
 21
178.83333333333326
  0
LINE
  8
_8-0_
  6
CONTINUOUS
 62
    7
 10
130.15948217906839
 20
178.33333333333258
 11
109.15615228161641
 21
178.33333333333258
  0
LINE
  8
_8-0_
  6
CONTINUOUS
 62
    7
 10
129.846087437964
 20
177.83333333333303
 11
109.15615228161641
 21
177.83333333333303
  0
LINE
  8
_8-0_
  6
CONTINUOUS
 62
    7
 10
129.54878495336288
 20
177.33333333333235
 11
109.15615228161641
 21
177.33333333333292
  0
LINE
  8
_8-0_
  6
CONTINUOUS
 62
    7
 10
129.26691971215178
 20
176.8333333333328
 11
109.15615228161641
 21
176.8333333333328
  0
LINE
  8
_8-0_
  6
CONTINUOUS
 62
    7
 10
128.99990316221192
 20
176.33333333333326
 11
109.15615228161641
 21
176.33333333333326
  0
LINE
  8
_8-0_
  6
CONTINUOUS
 62
    7
 10
128.74720505520372
 20
175.83333333333314
 11
109.15615228161641
 21
175.83333333333258
  0
LINE
  8
_8-0_
  6
CONTINUOUS
 62
    7
 10
128.50834659538407
 20
175.33333333333303
 11
109.15615228161641
 21
175.33333333333303
  0
LINE
  8
_8-0_
  6
CONTINUOUS
 62
    7
 10
128.28289465083856
 20
174.83333333333235
 11
109.15615228161641
 21
174.83333333333292
  0
LINE
  8
_8-0_
  6
CONTINUOUS
 62
    7
 10
128.07045683589536
 20
174.3333333333328
 11
109.15615228161641
 21
174.3333333333328
  0
LINE
  8
_8-0_
  6
CONTINUOUS
 62
    7
 10
127.87067731326943
 20
173.83333333333326
 11
109.15615228161641
 21
173.83333333333326
  0
LINE
  8
_8-0_
  6
CONTINUOUS
 62
    7
 10
127.68323319508909
 20
173.33333333333314
 11
109.15615228161641
 21
173.33333333333258
  0
LINE
  8
_8-0_
  6
CONTINUOUS
 62
    7
 10
127.50783144564537
 20
172.83333333333303
 11
109.15615228161641
 21
172.83333333333303
  0
LINE
  8
_8-0_
  6
CONTINUOUS
 62
    7
 10
127.34420620722176
 20
172.33333333333235
 11
109.15615228161641
 21
172.33333333333292
  0
LINE
  8
_8-0_
  6
CONTINUOUS
 62
    7
 10
127.19211648497208
 20
171.8333333333328
 11
109.15615228161641
 21
171.8333333333328
  0
LINE
  8
_8-0_
  6
CONTINUOUS
 62
    7
 10
127.05134413842586
 20
171.33333333333269
 11
109.15615228161641
 21
171.33333333333326
  0
LINE
  8
_8-0_
  6
CONTINUOUS
 62
    7
 10
126.92169213647162
 20
170.83333333333314
 11
109.15615228161641
 21
170.83333333333258
  0
LINE
  8
_8-0_
  6
CONTINUOUS
 62
    7
 10
126.80298304017924
 20
170.33333333333303
 11
109.15615228161641
 21
170.33333333333303
  0
LINE
  8
_8-0_
  6
CONTINUOUS
 62
    7
 10
126.69505768389229
 20
169.83333333333348
 11
109.15615228161641
 21
169.83333333333292
  0
LINE
  8
_8-0_
  6
CONTINUOUS
 62
    7
 10
126.59777403002408
 20
169.3333333333328
 11
109.15615228161641
 21
169.3333333333328
  0
LINE
  8
_8-0_
  6
CONTINUOUS
 62
    7
 10
126.51100617705538
 20
168.83333333333269
 11
109.15615228161641
 21
168.83333333333326
  0
LINE
  8
_8-0_
  6
CONTINUOUS
 62
    7
 10
126.43464350369072
 20
168.33333333333314
 11
109.15615228161641
 21
168.33333333333258
  0
LINE
  8
_8-0_
  6
CONTINUOUS
 62
    7
 10
126.36858993493718
 20
167.83333333333303
 11
109.15615228161641
 21
167.83333333333303
  0
LINE
  8
_8-0_
  6
CONTINUOUS
 62
    7
 10
126.31276331831828
 20
167.33333333333348
 11
109.15615228161641
 21
167.33333333333292
  0
LINE
  8
_8-0_
  6
CONTINUOUS
 62
    7
 10
126.26709490046551
 20
166.8333333333328
 11
109.15615228161641
 21
166.8333333333328
  0
LINE
  8
_8-0_
  6
CONTINUOUS
 62
    7
 10
126.23152889612243
 20
166.33333333333269
 11
109.15615228161641
 21
166.33333333333326
  0
LINE
  8
_8-0_
  6
CONTINUOUS
 62
    7
 10
126.20602214313976
 20
165.83333333333258
 11
109.15615228161641
 21
165.83333333333258
  0
LINE
  8
_8-0_
  6
CONTINUOUS
 62
    7
 10
126.1905438384133
 20
165.33333333333303
 11
109.15615228161641
 21
165.33333333333303
  0
LINE
  8
_8-0_
  6
CONTINUOUS
 62
    7
 10
126.18507535096342
 20
164.83333333333235
 11
109.15615228161641
 21
164.83333333333292
  0
LINE
  8
_8-0_
  6
CONTINUOUS
 62
    7
 10
126.18961010950102
 20
164.3333333333328
 11
109.15615228161641
 21
164.3333333333328
  0
LINE
  8
_8-0_
  6
CONTINUOUS
 62
    7
 10
126.20415356288049
 20
163.83333333333269
 11
109.15615228161641
 21
163.83333333333326
  0
LINE
  8
_8-0_
  6
CONTINUOUS
 62
    7
 10
126.22872321288128
 20
163.33333333333258
 11
109.15615228161641
 21
163.33333333333258
  0
LINE
  8
_8-0_
  6
CONTINUOUS
 62
    7
 10
126.26334871980134
 20
162.83333333333303
 11
109.15615228161641
 21
162.83333333333303
  0
LINE
  8
_8-0_
  6
CONTINUOUS
 62
    7
 10
126.30807208231886
 20
162.33333333333235
 11
109.15615228161641
 21
162.33333333333292
  0
LINE
  8
_8-0_
  6
CONTINUOUS
 62
    7
 10
126.36294789421868
 20
161.8333333333328
 11
109.15615228161641
 21
161.8333333333328
  0
LINE
  8
_8-0_
  6
CONTINUOUS
 62
    7
 10
126.42804368164434
 20
161.33333333333269
 11
109.15615228161641
 21
161.33333333333326
  0
LINE
  8
_8-0_
  6
CONTINUOUS
 62
    7
 10
126.50344032582097
 20
160.83333333333258
 11
109.15615228161641
 21
160.83333333333258
  0
LINE
  8
_8-0_
  6
CONTINUOUS
 62
    7
 10
126.58923257752747
 20
160.33333333333303
 11
109.15615228161641
 21
160.33333333333303
  0
LINE
  8
_8-0_
  6
CONTINUOUS
 62
    7
 10
126.68552967112987
 20
159.83333333333235
 11
109.15615228161641
 21
159.83333333333292
  0
LINE
  8
_8-0_
  6
CONTINUOUS
 62
    7
 10
126.79245604775701
 20
159.3333333333328
 11
109.15615228161641
 21
159.3333333333328
  0
LINE
  8
_8-0_
  6
CONTINUOUS
 62
    7
 10
126.91015219920757
 20
158.83333333333269
 11
109.15615228161641
 21
158.83333333333326
  0
LINE
  8
_8-0_
  6
CONTINUOUS
 62
    7
 10
127.03877564656239
 20
158.33333333333258
 11
109.15615228161641
 21
158.33333333333258
  0
LINE
  8
_8-0_
  6
CONTINUOUS
 62
    7
 10
127.17850207028846
 20
157.83333333333303
 11
109.15615228161641
 21
157.83333333333303
  0
LINE
  8
_8-0_
  6
CONTINUOUS
 62
    7
 10
127.32952661195668
 20
157.33333333333235
 11
109.15615228161641
 21
157.33333333333292
  0
LINE
  8
_8-0_
  6
CONTINUOUS
 62
    7
 10
199.15615228161641
 20
206.8333333333328
 11
109.15615228161641
 21
206.8333333333328
  0
LINE
  8
_8-0_
  6
CONTINUOUS
 62
    7
 10
198.65615228161573
 20
206.33333333333326
 11
109.15615228161641
 21
206.33333333333326
  0
LINE
  8
_8-0_
  6
CONTINUOUS
 62
    7
 10
198.15615228161619
 20
205.83333333333258
 11
109.15615228161641
 21
205.83333333333258
  0
LINE
  8
_8-0_
  6
CONTINUOUS
 62
    7
 10
197.6561522816155
 20
205.33333333333303
 11
109.15615228161641
 21
205.33333333333303
  0
LINE
  8
_8-0_
  6
CONTINUOUS
 62
    7
 10
197.15615228161596
 20
204.83333333333235
 11
109.15615228161641
 21
204.83333333333292
  0
LINE
  8
_8-0_
  6
CONTINUOUS
 62
    7
 10
196.65615228161641
 20
204.3333333333328
 11
109.15615228161641
 21
204.3333333333328
  0
LINE
  8
_8-0_
  6
CONTINUOUS
 62
    7
 10
196.15615228161573
 20
203.83333333333326
 11
109.15615228161641
 21
203.83333333333326
  0
LINE
  8
_8-0_
  6
CONTINUOUS
 62
    7
 10
195.65615228161619
 20
203.33333333333258
 11
109.15615228161641
 21
203.33333333333258
  0
LINE
  8
_8-0_
  6
CONTINUOUS
 62
    7
 10
195.1561522816155
 20
202.83333333333303
 11
109.15615228161641
 21
202.83333333333303
  0
LINE
  8
_8-0_
  6
CONTINUOUS
 62
    7
 10
194.65615228161596
 20
202.33333333333292
 11
109.15615228161641
 21
202.33333333333292
  0
LINE
  8
_8-0_
  6
CONTINUOUS
 62
    7
 10
194.15615228161585
 20
201.8333333333328
 11
109.15615228161641
 21
201.8333333333328
  0
LINE
  8
_8-0_
  6
CONTINUOUS
 62
    7
 10
193.65615228161573
 20
201.33333333333269
 11
109.15615228161641
 21
201.33333333333326
  0
LINE
  8
_8-0_
  6
CONTINUOUS
 62
    7
 10
193.15615228161619
 20
200.83333333333258
 11
109.15615228161641
 21
200.83333333333258
  0
LINE
  8
_8-0_
  6
CONTINUOUS
 62
    7
 10
192.65615228161607
 20
200.33333333333303
 11
109.15615228161641
 21
200.33333333333303
  0
LINE
  8
_8-0_
  6
CONTINUOUS
 62
    7
 10
192.15615228161596
 20
199.83333333333292
 11
109.15615228161641
 21
199.83333333333292
  0
LINE
  8
_8-0_
  6
CONTINUOUS
 62
    7
 10
191.65615228161585
 20
199.3333333333328
 11
109.15615228161641
 21
199.3333333333328
  0
LINE
  8
_8-0_
  6
CONTINUOUS
 62
    7
 10
191.15615228161573
 20
198.83333333333269
 11
109.15615228161641
 21
198.83333333333326
  0
LINE
  8
_8-0_
  6
CONTINUOUS
 62
    7
 10
190.65615228161619
 20
198.33333333333258
 11
109.15615228161641
 21
198.33333333333258
  0
LINE
  8
_8-0_
  6
CONTINUOUS
 62
    7
 10
190.15615228161607
 20
197.83333333333303
 11
109.15615228161641
 21
197.83333333333303
  0
LINE
  8
_8-0_
  6
CONTINUOUS
 62
    7
 10
189.65615228161596
 20
197.33333333333235
 11
109.15615228161641
 21
197.33333333333292
  0
LINE
  8
_8-0_
  6
CONTINUOUS
 62
    7
 10
189.15615228161641
 20
196.8333333333328
 11
109.15615228161641
 21
196.8333333333328
  0
LINE
  8
_8-0_
  6
CONTINUOUS
 62
    7
 10
188.65615228161573
 20
196.33333333333326
 11
109.15615228161641
 21
196.33333333333326
  0
LINE
  8
_8-0_
  6
CONTINUOUS
 62
    7
 10
188.15615228161619
 20
195.83333333333258
 11
109.15615228161641
 21
195.83333333333258
  0
LINE
  8
_8-0_
  6
CONTINUOUS
 62
    7
 10
187.6561522816155
 20
195.33333333333303
 11
109.15615228161641
 21
195.33333333333303
  0
LINE
  8
_8-0_
  6
CONTINUOUS
 62
    7
 10
187.15615228161596
 20
194.83333333333235
 11
109.15615228161641
 21
194.83333333333292
  0
LINE
  8
_8-0_
  6
CONTINUOUS
 62
    7
 10
186.65615228161585
 20
194.3333333333328
 11
109.15615228161641
 21
194.3333333333328
  0
LINE
  8
_8-0_
  6
CONTINUOUS
 62
    7
 10
186.15615228161573
 20
193.83333333333326
 11
109.15615228161641
 21
193.83333333333326
  0
LINE
  8
_8-0_
  6
CONTINUOUS
 62
    7
 10
185.65615228161619
 20
193.33333333333258
 11
109.15615228161641
 21
193.33333333333258
  0
LINE
  8
_8-0_
  6
CONTINUOUS
 62
    7
 10
185.1561522816155
 20
192.83333333333303
 11
109.15615228161641
 21
192.83333333333303
  0
LINE
  8
_8-0_
  6
CONTINUOUS
 62
    7
 10
184.65615228161596
 20
192.33333333333235
 11
109.15615228161641
 21
192.33333333333292
  0
LINE
  8
_8-0_
  6
CONTINUOUS
 62
    7
 10
184.15615228161641
 20
191.8333333333328
 11
109.15615228161641
 21
191.8333333333328
  0
LINE
  8
_8-0_
  6
CONTINUOUS
 62
    7
 10
183.65615228161573
 20
191.33333333333269
 11
109.15615228161641
 21
191.33333333333326
  0
LINE
  8
_8-0_
  6
CONTINUOUS
 62
    7
 10
183.15615228161619
 20
190.83333333333258
 11
109.15615228161641
 21
190.83333333333258
  0
LINE
  8
_8-0_
  6
CONTINUOUS
 62
    7
 10
182.6561522816155
 20
190.33333333333303
 11
109.15615228161641
 21
190.33333333333303
  0
LINE
  8
_8-0_
  6
CONTINUOUS
 62
    7
 10
182.15615228161596
 20
189.83333333333292
 11
109.15615228161641
 21
189.83333333333292
  0
LINE
  8
_8-0_
  6
CONTINUOUS
 62
    7
 10
181.65615228161585
 20
189.3333333333328
 11
156.00931077856785
 21
189.3333333333328
  0
LINE
  8
_8-0_
  6
CONTINUOUS
 62
    7
 10
146.34966045132956
 20
189.3333333333328
 11
109.15615228161641
 21
189.3333333333328
  0
LINE
  8
_8-0_
  6
CONTINUOUS
 62
    7
 10
181.15615228161573
 20
188.83333333333269
 11
158.07880039574172
 21
188.83333333333326
  0
LINE
  8
_8-0_
  6
CONTINUOUS
 62
    7
 10
144.28017083415682
 20
188.83333333333326
 11
109.15615228161641
 21
188.83333333333326
  0
LINE
  8
_8-0_
  6
CONTINUOUS
 62
    7
 10
180.65615228161619
 20
188.33333333333258
 11
159.62779182257464
 21
188.33333333333258
  0
LINE
  8
_8-0_
  6
CONTINUOUS
 62
    7
 10
142.73117940732334
 20
188.33333333333258
 11
109.15615228161641
 21
188.33333333333258
  0
LINE
  8
_8-0_
  6
CONTINUOUS
 62
    7
 10
180.15615228161607
 20
187.83333333333303
 11
160.90816543860115
 21
187.83333333333303
  0
LINE
  8
_8-0_
  6
CONTINUOUS
 62
    7
 10
141.4508057912974
 20
187.83333333333303
 11
109.15615228161641
 21
187.83333333333303
  0
LINE
  8
_8-0_
  6
CONTINUOUS
 62
    7
 10
179.65615228161596
 20
187.33333333333292
 11
162.01556167801073
 21
187.33333333333292
  0
LINE
  8
_8-0_
  6
CONTINUOUS
 62
    7
 10
140.34340955188725
 20
187.33333333333292
 11
109.15615228161641
 21
187.33333333333292
  0
LINE
  8
_8-0_
  6
CONTINUOUS
 62
    7
 10
179.15615228161585
 20
186.8333333333328
 11
162.99870207704203
 21
186.8333333333328
  0
LINE
  8
_8-0_
  6
CONTINUOUS
 62
    7
 10
139.36026915285652
 20
186.8333333333328
 11
109.15615228161641
 21
186.8333333333328
  0
LINE
  8
_8-0_
  6
CONTINUOUS
 62
    7
 10
178.65615228161573
 20
186.33333333333269
 11
163.88646051502405
 21
186.33333333333326
  0
LINE
  8
_8-0_
  6
CONTINUOUS
 62
    7
 10
138.47251071487449
 20
186.33333333333326
 11
109.15615228161641
 21
186.33333333333326
  0
LINE
  8
_8-0_
  6
CONTINUOUS
 62
    7
 10
178.15615228161619
 20
185.83333333333258
 11
164.69764171866586
 21
185.83333333333258
  0
LINE
  8
_8-0_
  6
CONTINUOUS
 62
    7
 10
137.66132951123211
 20
185.83333333333258
 11
109.15615228161641
 21
185.83333333333258
  0
LINE
  8
_8-0_
  6
CONTINUOUS
 62
    7
 10
177.65615228161607
 20
185.33333333333303
 11
165.44531464020395
 21
185.33333333333303
  0
LINE
  8
_8-0_
  6
CONTINUOUS
 62
    7
 10
136.91365658969403
 20
185.33333333333303
 11
109.15615228161641
 21
185.33333333333303
  0
LINE
  8
_8-0_
  6
CONTINUOUS
 62
    7
 10
177.15615228161596
 20
184.83333333333235
 11
166.13900469515784
 21
184.83333333333292
  0
LINE
  8
_8-0_
  6
CONTINUOUS
 62
    7
 10
136.21996653474071
 20
184.83333333333292
 11
109.15615228161641
 21
184.83333333333292
  0
LINE
  8
_8-0_
  6
CONTINUOUS
 62
    7
 10
176.65615228161641
 20
184.3333333333328
 11
166.78591199783568
 21
184.3333333333328
  0
LINE
  8
_8-0_
  6
CONTINUOUS
 62
    7
 10
135.57305923206286
 20
184.3333333333328
 11
109.15615228161641
 21
184.3333333333328
  0
LINE
  8
_8-0_
  6
CONTINUOUS
 62
    7
 10
176.15615228161573
 20
183.83333333333326
 11
167.39163777861336
 21
183.83333333333269
  0
LINE
  8
_8-0_
  6
CONTINUOUS
 62
    7
 10
134.96733345128519
 20
183.83333333333269
 11
109.15615228161641
 21
183.83333333333326
  0
LINE
  8
_8-0_
  6
CONTINUOUS
 62
    7
 10
175.65615228161619
 20
183.33333333333258
 11
167.96064204444292
 21
183.33333333333258
  0
LINE
  8
_8-0_
  6
CONTINUOUS
 62
    7
 10
134.39832918545562
 20
183.33333333333258
 11
109.15615228161641
 21
183.33333333333258
  0
LINE
  8
_8-0_
  6
CONTINUOUS
 62
    7
 10
175.1561522816155
 20
182.83333333333303
 11
168.49654496243829
 21
182.83333333333246
  0
LINE
  8
_8-0_
  6
CONTINUOUS
 62
    7
 10
133.86242626745968
 20
182.83333333333303
 11
109.15615228161641
 21
182.83333333333303
  0
LINE
  8
_8-0_
  6
CONTINUOUS
 62
    7
 10
174.65615228161596
 20
182.33333333333235
 11
169.00233268767579
 21
182.33333333333235
  0
LINE
  8
_8-0_
  6
CONTINUOUS
 62
    7
 10
133.35663854222275
 20
182.33333333333235
 11
109.15615228161641
 21
182.33333333333292
  0
LINE
  8
_8-0_
  6
CONTINUOUS
 62
    7
 10
174.15615228161641
 20
181.8333333333328
 11
169.48050228373347
 21
181.8333333333328
  0
LINE
  8
_8-0_
  6
CONTINUOUS
 62
    7
 10
132.8784689461645
 20
181.8333333333328
 11
109.15615228161641
 21
181.8333333333328
  0
LINE
  8
_8-0_
  6
CONTINUOUS
 62
    7
 10
173.65615228161573
 20
181.33333333333326
 11
169.93316643884214
 21
181.33333333333326
  0
LINE
  8
_8-0_
  6
CONTINUOUS
 62
    7
 10
132.42580479105641
 20
181.33333333333326
 11
109.15615228161641
 21
181.33333333333326
  0
LINE
  8
_8-0_
  6
CONTINUOUS
 62
    7
 10
173.15615228161619
 20
180.83333333333258
 11
170.36213083863458
 21
180.83333333333258
  0
LINE
  8
_8-0_
  6
CONTINUOUS
 62
    7
 10
131.99684039126396
 20
180.83333333333258
 11
109.15615228161641
 21
180.83333333333258
  0
LINE
  8
_8-0_
  6
CONTINUOUS
 62
    7
 10
172.6561522816155
 20
180.33333333333303
 11
170.76895245585945
 21
180.33333333333303
  0
LINE
  8
_8-0_
  6
CONTINUOUS
 62
    7
 10
131.59001877403853
 20
180.33333333333303
 11
109.15615228161641
 21
180.33333333333303
  0
LINE
  8
_8-0_
  6
CONTINUOUS
 62
    7
 10
172.15615228161596
 20
179.83333333333292
 11
171.15498421809889
 21
179.83333333333292
  0
LINE
  8
_8-0_
  6
CONTINUOUS
 62
    7
 10
131.20398701179909
 20
179.83333333333292
 11
109.15615228161641
 21
179.83333333333292
  0
LINE
  8
_8-0_
  6
CONTINUOUS
 62
    7
 10
171.65615228161641
 20
179.3333333333328
 11
171.52140975643078
 21
179.3333333333328
  0
LINE
  8
_8-0_
  6
CONTINUOUS
 62
    7
 10
130.83756147346776
 20
179.3333333333328
 11
109.15615228161641
 21
179.3333333333328
  0
LINE
  8
_8-0_
  6
CONTINUOUS
 62
    7
 10
130.48970042729877
 20
178.83333333333269
 11
109.15615228161641
 21
178.83333333333326
  0
LINE
  8
_8-0_
  6
CONTINUOUS
 62
    7
 10
130.15948217906839
 20
178.33333333333258
 11
109.15615228161641
 21
178.33333333333258
  0
LINE
  8
_8-0_
  6
CONTINUOUS
 62
    7
 10
129.846087437964
 20
177.83333333333303
 11
109.15615228161641
 21
177.83333333333303
  0
LINE
  8
_8-0_
  6
CONTINUOUS
 62
    7
 10
129.54878495336288
 20
177.33333333333235
 11
109.15615228161641
 21
177.33333333333292
  0
LINE
  8
_8-0_
  6
CONTINUOUS
 62
    7
 10
129.26691971215178
 20
176.8333333333328
 11
109.15615228161641
 21
176.8333333333328
  0
LINE
  8
_8-0_
  6
CONTINUOUS
 62
    7
 10
128.99990316221192
 20
176.33333333333326
 11
109.15615228161641
 21
176.33333333333326
  0
LINE
  8
_8-0_
  6
CONTINUOUS
 62
    7
 10
128.74720505520372
 20
175.83333333333314
 11
109.15615228161641
 21
175.83333333333258
  0
LINE
  8
_8-0_
  6
CONTINUOUS
 62
    7
 10
128.50834659538407
 20
175.33333333333303
 11
109.15615228161641
 21
175.33333333333303
  0
LINE
  8
_8-0_
  6
CONTINUOUS
 62
    7
 10
128.28289465083856
 20
174.83333333333235
 11
109.15615228161641
 21
174.83333333333292
  0
LINE
  8
_8-0_
  6
CONTINUOUS
 62
    7
 10
128.07045683589536
 20
174.3333333333328
 11
109.15615228161641
 21
174.3333333333328
  0
LINE
  8
_8-0_
  6
CONTINUOUS
 62
    7
 10
127.87067731326943
 20
173.83333333333326
 11
109.15615228161641
 21
173.83333333333326
  0
LINE
  8
_8-0_
  6
CONTINUOUS
 62
    7
 10
127.68323319508909
 20
173.33333333333314
 11
109.15615228161641
 21
173.33333333333258
  0
LINE
  8
_8-0_
  6
CONTINUOUS
 62
    7
 10
127.50783144564537
 20
172.83333333333303
 11
109.15615228161641
 21
172.83333333333303
  0
LINE
  8
_8-0_
  6
CONTINUOUS
 62
    7
 10
127.34420620722176
 20
172.33333333333235
 11
109.15615228161641
 21
172.33333333333292
  0
LINE
  8
_8-0_
  6
CONTINUOUS
 62
    7
 10
127.19211648497208
 20
171.8333333333328
 11
109.15615228161641
 21
171.8333333333328
  0
LINE
  8
_8-0_
  6
CONTINUOUS
 62
    7
 10
127.05134413842586
 20
171.33333333333269
 11
109.15615228161641
 21
171.33333333333326
  0
LINE
  8
_8-0_
  6
CONTINUOUS
 62
    7
 10
126.92169213647162
 20
170.83333333333314
 11
109.15615228161641
 21
170.83333333333258
  0
LINE
  8
_8-0_
  6
CONTINUOUS
 62
    7
 10
126.80298304017924
 20
170.33333333333303
 11
109.15615228161641
 21
170.33333333333303
  0
LINE
  8
_8-0_
  6
CONTINUOUS
 62
    7
 10
126.69505768389229
 20
169.83333333333348
 11
109.15615228161641
 21
169.83333333333292
  0
LINE
  8
_8-0_
  6
CONTINUOUS
 62
    7
 10
126.59777403002408
 20
169.3333333333328
 11
109.15615228161641
 21
169.3333333333328
  0
LINE
  8
_8-0_
  6
CONTINUOUS
 62
    7
 10
126.51100617705538
 20
168.83333333333269
 11
109.15615228161641
 21
168.83333333333326
  0
LINE
  8
_8-0_
  6
CONTINUOUS
 62
    7
 10
126.43464350369072
 20
168.33333333333314
 11
109.15615228161641
 21
168.33333333333258
  0
LINE
  8
_8-0_
  6
CONTINUOUS
 62
    7
 10
126.36858993493718
 20
167.83333333333303
 11
109.15615228161641
 21
167.83333333333303
  0
LINE
  8
_8-0_
  6
CONTINUOUS
 62
    7
 10
126.31276331831828
 20
167.33333333333348
 11
109.15615228161641
 21
167.33333333333292
  0
LINE
  8
_8-0_
  6
CONTINUOUS
 62
    7
 10
126.26709490046551
 20
166.8333333333328
 11
109.15615228161641
 21
166.8333333333328
  0
LINE
  8
_8-0_
  6
CONTINUOUS
 62
    7
 10
126.23152889612243
 20
166.33333333333269
 11
109.15615228161641
 21
166.33333333333326
  0
LINE
  8
_8-0_
  6
CONTINUOUS
 62
    7
 10
126.20602214313976
 20
165.83333333333258
 11
109.15615228161641
 21
165.83333333333258
  0
LINE
  8
_8-0_
  6
CONTINUOUS
 62
    7
 10
126.1905438384133
 20
165.33333333333303
 11
109.15615228161641
 21
165.33333333333303
  0
LINE
  8
_8-0_
  6
CONTINUOUS
 62
    7
 10
126.18507535096342
 20
164.83333333333235
 11
109.15615228161641
 21
164.83333333333292
  0
LINE
  8
_8-0_
  6
CONTINUOUS
 62
    7
 10
126.18961010950102
 20
164.3333333333328
 11
109.15615228161641
 21
164.3333333333328
  0
LINE
  8
_8-0_
  6
CONTINUOUS
 62
    7
 10
126.20415356288049
 20
163.83333333333269
 11
109.15615228161641
 21
163.83333333333326
  0
LINE
  8
_8-0_
  6
CONTINUOUS
 62
    7
 10
126.22872321288128
 20
163.33333333333258
 11
109.15615228161641
 21
163.33333333333258
  0
LINE
  8
_8-0_
  6
CONTINUOUS
 62
    7
 10
126.26334871980134
 20
162.83333333333303
 11
109.15615228161641
 21
162.83333333333303
  0
LINE
  8
_8-0_
  6
CONTINUOUS
 62
    7
 10
126.30807208231886
 20
162.33333333333235
 11
109.15615228161641
 21
162.33333333333292
  0
LINE
  8
_8-0_
  6
CONTINUOUS
 62
    7
 10
126.36294789421868
 20
161.8333333333328
 11
109.15615228161641
 21
161.8333333333328
  0
LINE
  8
_8-0_
  6
CONTINUOUS
 62
    7
 10
126.42804368164434
 20
161.33333333333269
 11
109.15615228161641
 21
161.33333333333326
  0
LINE
  8
_8-0_
  6
CONTINUOUS
 62
    7
 10
126.50344032582097
 20
160.83333333333258
 11
109.15615228161641
 21
160.83333333333258
  0
LINE
  8
_8-0_
  6
CONTINUOUS
 62
    7
 10
126.58923257752747
 20
160.33333333333303
 11
109.15615228161641
 21
160.33333333333303
  0
LINE
  8
_8-0_
  6
CONTINUOUS
 62
    7
 10
126.68552967112987
 20
159.83333333333235
 11
109.15615228161641
 21
159.83333333333292
  0
LINE
  8
_8-0_
  6
CONTINUOUS
 62
    7
 10
126.79245604775701
 20
159.3333333333328
 11
109.15615228161641
 21
159.3333333333328
  0
LINE
  8
_8-0_
  6
CONTINUOUS
 62
    7
 10
126.91015219920757
 20
158.83333333333269
 11
109.15615228161641
 21
158.83333333333326
  0
LINE
  8
_8-0_
  6
CONTINUOUS
 62
    7
 10
127.03877564656239
 20
158.33333333333258
 11
109.15615228161641
 21
158.33333333333258
  0
LINE
  8
_8-0_
  6
CONTINUOUS
 62
    7
 10
127.17850207028846
 20
157.83333333333303
 11
109.15615228161641
 21
157.83333333333303
  0
LINE
  8
_8-0_
  6
CONTINUOUS
 62
    7
 10
127.32952661195668
 20
157.33333333333235
 11
109.15615228161641
 21
157.33333333333292
  0
LINE
  8
_8-0_
  6
CONTINUOUS
 62
    7
 10
127.49206537175326
 20
156.8333333333328
 11
109.15615228161641
 21
156.8333333333328
  0
LINE
  8
_8-0_
  6
CONTINUOUS
 62
    7
 10
127.66635713082167
 20
156.33333333333269
 11
109.15615228161641
 21
156.33333333333326
  0
LINE
  8
_8-0_
  6
CONTINUOUS
 62
    7
 10
127.85266533346999
 20
155.83333333333258
 11
109.15615228161641
 21
155.83333333333258
  0
LINE
  8
_8-0_
  6
CONTINUOUS
 62
    7
 10
128.0512803716158
 20
155.33333333333303
 11
109.15615228161641
 21
155.33333333333303
  0
LINE
  8
_8-0_
  6
CONTINUOUS
 62
    7
 10
128.26252222293078
 20
154.83333333333235
 11
109.15615228161641
 21
154.83333333333292
  0
LINE
  8
_8-0_
  6
CONTINUOUS
 62
    7
 10
128.48674350553438
 20
154.3333333333328
 11
109.15615228161641
 21
154.3333333333328
  0
LINE
  8
_8-0_
  6
CONTINUOUS
 62
    7
 10
128.72433302633908
 20
153.83333333333269
 11
109.15615228161641
 21
153.83333333333326
  0
LINE
  8
_8-0_
  6
CONTINUOUS
 62
    7
 10
128.97571991831342
 20
153.33333333333258
 11
109.15615228161641
 21
153.33333333333258
  0
LINE
  8
_8-0_
  6
CONTINUOUS
 62
    7
 10
129.24137848501573
 20
152.83333333333303
 11
109.15615228161641
 21
152.83333333333303
  0
LINE
  8
_8-0_
  6
CONTINUOUS
 62
    7
 10
129.52183390065272
 20
152.33333333333235
 11
109.15615228161641
 21
152.33333333333292
  0
LINE
  8
_8-0_
  6
CONTINUOUS
 62
    7
 10
129.81766895271051
 20
151.8333333333328
 11
109.15615228161641
 21
151.8333333333328
  0
LINE
  8
_8-0_
  6
CONTINUOUS
 62
    7
 10
130.1295320652514
 20
151.33333333333269
 11
109.15615228161641
 21
151.33333333333326
  0
LINE
  8
_8-0_
  6
CONTINUOUS
 62
    7
 10
130.45814690873272
 20
150.83333333333258
 11
109.15615228161641
 21
150.83333333333258
  0
LINE
  8
_8-0_
  6
CONTINUOUS
 62
    7
 10
130.80432399323172
 20
150.33333333333303
 11
109.15615228161641
 21
150.33333333333303
  0
LINE
  8
_8-0_
  6
CONTINUOUS
 62
    7
 10
131.16897476578742
 20
149.83333333333235
 11
109.15615228161641
 21
149.83333333333292
  0
LINE
  8
_8-0_
  6
CONTINUOUS
 62
    7
 10
131.55312890317646
 20
149.3333333333328
 11
109.15615228161641
 21
149.3333333333328
  0
LINE
  8
_8-0_
  6
CONTINUOUS
 62
    7
 10
131.95795573017961
 20
148.83333333333269
 11
109.15615228161641
 21
148.83333333333326
  0
LINE
  8
_8-0_
  6
CONTINUOUS
 62
    7
 10
132.38479103258328
 20
148.33333333333258
 11
109.15615228161641
 21
148.33333333333258
  0
LINE
  8
_8-0_
  6
CONTINUOUS
 62
    7
 10
132.83517102492567
 20
147.83333333333303
 11
109.15615228161641
 21
147.83333333333303
  0
LINE
  8
_8-0_
  6
CONTINUOUS
 62
    7
 10
133.3108759569177
 20
147.33333333333235
 11
109.15615228161641
 21
147.33333333333292
  0
LINE
  8
_8-0_
  6
CONTINUOUS
 62
    7
 10
133.81398693381698
 20
146.8333333333328
 11
109.15615228161641
 21
146.8333333333328
  0
LINE
  8
_8-0_
  6
CONTINUOUS
 62
    7
 10
134.34696121194463
 20
146.33333333333269
 11
109.15615228161641
 21
146.33333333333326
  0
LINE
  8
_8-0_
  6
CONTINUOUS
 62
    7
 10
134.91273390752212
 20
145.83333333333258
 11
109.15615228161641
 21
145.83333333333258
  0
LINE
  8
_8-0_
  6
CONTINUOUS
 62
    7
 10
135.51485844273657
 20
145.33333333333303
 11
109.15615228161641
 21
145.33333333333303
  0
LINE
  8
_8-0_
  6
CONTINUOUS
 62
    7
 10
136.15770550146863
 20
144.83333333333235
 11
109.15615228161641
 21
144.83333333333292
  0
LINE
  8
_8-0_
  6
CONTINUOUS
 62
    7
 10
136.65615228161641
 20
144.3333333333328
 11
109.15615228161641
 21
144.3333333333328
  0
LINE
  8
_8-0_
  6
CONTINUOUS
 62
    7
 10
136.15615228161573
 20
143.83333333333269
 11
109.15615228161641
 21
143.83333333333326
  0
LINE
  8
_8-0_
  6
CONTINUOUS
 62
    7
 10
135.65615228161619
 20
143.33333333333258
 11
109.15615228161641
 21
143.33333333333258
  0
LINE
  8
_8-0_
  6
CONTINUOUS
 62
    7
 10
135.15615228161607
 20
142.83333333333303
 11
109.15615228161641
 21
142.83333333333303
  0
LINE
  8
_8-0_
  6
CONTINUOUS
 62
    7
 10
134.65615228161596
 20
142.33333333333235
 11
109.15615228161641
 21
142.33333333333292
  0
LINE
  8
_8-0_
  6
CONTINUOUS
 62
    7
 10
134.15615228161585
 20
141.8333333333328
 11
109.15615228161641
 21
141.8333333333328
  0
LINE
  8
_8-0_
  6
CONTINUOUS
 62
    7
 10
133.65615228161573
 20
141.33333333333326
 11
109.15615228161641
 21
141.33333333333326
  0
LINE
  8
_8-0_
  6
CONTINUOUS
 62
    7
 10
133.15615228161619
 20
140.83333333333258
 11
109.15615228161641
 21
140.83333333333258
  0
LINE
  8
_8-0_
  6
CONTINUOUS
 62
    7
 10
132.6561522816155
 20
140.33333333333303
 11
109.15615228161641
 21
140.33333333333303
  0
LINE
  8
_8-0_
  6
CONTINUOUS
 62
    7
 10
132.15615228161596
 20
139.83333333333235
 11
109.15615228161641
 21
139.83333333333292
  0
LINE
  8
_8-0_
  6
CONTINUOUS
 62
    7
 10
131.65615228161641
 20
139.3333333333328
 11
109.15615228161641
 21
139.3333333333328
  0
LINE
  8
_8-0_
  6
CONTINUOUS
 62
    7
 10
131.15615228161573
 20
138.83333333333326
 11
109.15615228161641
 21
138.83333333333326
  0
LINE
  8
_8-0_
  6
CONTINUOUS
 62
    7
 10
130.65615228161619
 20
138.33333333333258
 11
109.15615228161641
 21
138.33333333333258
  0
LINE
  8
_8-0_
  6
CONTINUOUS
 62
    7
 10
130.1561522816155
 20
137.83333333333303
 11
109.15615228161641
 21
137.83333333333303
  0
LINE
  8
_8-0_
  6
CONTINUOUS
 62
    7
 10
129.65615228161596
 20
137.33333333333292
 11
109.15615228161641
 21
137.33333333333292
  0
LINE
  8
_8-0_
  6
CONTINUOUS
 62
    7
 10
129.15615228161585
 20
136.8333333333328
 11
109.15615228161641
 21
136.8333333333328
  0
LINE
  8
_8-0_
  6
CONTINUOUS
 62
    7
 10
128.65615228161573
 20
136.33333333333269
 11
109.15615228161641
 21
136.33333333333326
  0
LINE
  8
_8-0_
  6
CONTINUOUS
 62
    7
 10
128.15615228161619
 20
135.83333333333258
 11
109.15615228161641
 21
135.83333333333258
  0
LINE
  8
_8-0_
  6
CONTINUOUS
 62
    7
 10
127.65615228161607
 20
135.33333333333303
 11
109.15615228161641
 21
135.33333333333303
  0
LINE
  8
_8-0_
  6
CONTINUOUS
 62
    7
 10
127.15615228161596
 20
134.83333333333292
 11
109.15615228161641
 21
134.83333333333292
  0
LINE
  8
_8-0_
  6
CONTINUOUS
 62
    7
 10
126.65615228161585
 20
134.3333333333328
 11
109.15615228161641
 21
134.3333333333328
  0
LINE
  8
_8-0_
  6
CONTINUOUS
 62
    7
 10
126.15615228161573
 20
133.83333333333269
 11
109.15615228161641
 21
133.83333333333326
  0
LINE
  8
_8-0_
  6
CONTINUOUS
 62
    7
 10
125.65615228161619
 20
133.33333333333258
 11
109.15615228161641
 21
133.33333333333258
  0
LINE
  8
_8-0_
  6
CONTINUOUS
 62
    7
 10
125.15615228161607
 20
132.83333333333303
 11
109.15615228161641
 21
132.83333333333303
  0
LINE
  8
_8-0_
  6
CONTINUOUS
 62
    7
 10
124.65615228161596
 20
132.33333333333235
 11
109.15615228161641
 21
132.33333333333292
  0
LINE
  8
_8-0_
  6
CONTINUOUS
 62
    7
 10
124.15615228161641
 20
131.8333333333328
 11
109.15615228161641
 21
131.8333333333328
  0
LINE
  8
_8-0_
  6
CONTINUOUS
 62
    7
 10
127.49206537175326
 20
156.8333333333328
 11
109.15615228161641
 21
156.8333333333328
  0
LINE
  8
_8-0_
  6
CONTINUOUS
 62
    7
 10
127.66635713082167
 20
156.33333333333269
 11
109.15615228161641
 21
156.33333333333326
  0
LINE
  8
_8-0_
  6
CONTINUOUS
 62
    7
 10
127.85266533346999
 20
155.83333333333258
 11
109.15615228161641
 21
155.83333333333258
  0
LINE
  8
_8-0_
  6
CONTINUOUS
 62
    7
 10
128.0512803716158
 20
155.33333333333303
 11
109.15615228161641
 21
155.33333333333303
  0
LINE
  8
_8-0_
  6
CONTINUOUS
 62
    7
 10
128.26252222293078
 20
154.83333333333235
 11
109.15615228161641
 21
154.83333333333292
  0
LINE
  8
_8-0_
  6
CONTINUOUS
 62
    7
 10
128.48674350553438
 20
154.3333333333328
 11
109.15615228161641
 21
154.3333333333328
  0
LINE
  8
_8-0_
  6
CONTINUOUS
 62
    7
 10
128.72433302633908
 20
153.83333333333269
 11
109.15615228161641
 21
153.83333333333326
  0
LINE
  8
_8-0_
  6
CONTINUOUS
 62
    7
 10
128.97571991831342
 20
153.33333333333258
 11
109.15615228161641
 21
153.33333333333258
  0
LINE
  8
_8-0_
  6
CONTINUOUS
 62
    7
 10
129.24137848501573
 20
152.83333333333303
 11
109.15615228161641
 21
152.83333333333303
  0
LINE
  8
_8-0_
  6
CONTINUOUS
 62
    7
 10
129.52183390065272
 20
152.33333333333235
 11
109.15615228161641
 21
152.33333333333292
  0
LINE
  8
_8-0_
  6
CONTINUOUS
 62
    7
 10
129.81766895271051
 20
151.8333333333328
 11
109.15615228161641
 21
151.8333333333328
  0
LINE
  8
_8-0_
  6
CONTINUOUS
 62
    7
 10
130.1295320652514
 20
151.33333333333269
 11
109.15615228161641
 21
151.33333333333326
  0
LINE
  8
_8-0_
  6
CONTINUOUS
 62
    7
 10
130.45814690873272
 20
150.83333333333258
 11
109.15615228161641
 21
150.83333333333258
  0
LINE
  8
_8-0_
  6
CONTINUOUS
 62
    7
 10
130.80432399323172
 20
150.33333333333303
 11
109.15615228161641
 21
150.33333333333303
  0
LINE
  8
_8-0_
  6
CONTINUOUS
 62
    7
 10
131.16897476578742
 20
149.83333333333235
 11
109.15615228161641
 21
149.83333333333292
  0
LINE
  8
_8-0_
  6
CONTINUOUS
 62
    7
 10
131.55312890317646
 20
149.3333333333328
 11
109.15615228161641
 21
149.3333333333328
  0
LINE
  8
_8-0_
  6
CONTINUOUS
 62
    7
 10
131.95795573017961
 20
148.83333333333269
 11
109.15615228161641
 21
148.83333333333326
  0
LINE
  8
_8-0_
  6
CONTINUOUS
 62
    7
 10
132.38479103258328
 20
148.33333333333258
 11
109.15615228161641
 21
148.33333333333258
  0
LINE
  8
_8-0_
  6
CONTINUOUS
 62
    7
 10
132.83517102492567
 20
147.83333333333303
 11
109.15615228161641
 21
147.83333333333303
  0
LINE
  8
_8-0_
  6
CONTINUOUS
 62
    7
 10
133.3108759569177
 20
147.33333333333235
 11
109.15615228161641
 21
147.33333333333292
  0
LINE
  8
_8-0_
  6
CONTINUOUS
 62
    7
 10
133.81398693381698
 20
146.8333333333328
 11
109.15615228161641
 21
146.8333333333328
  0
LINE
  8
_8-0_
  6
CONTINUOUS
 62
    7
 10
134.34696121194463
 20
146.33333333333269
 11
109.15615228161641
 21
146.33333333333326
  0
LINE
  8
_8-0_
  6
CONTINUOUS
 62
    7
 10
134.91273390752212
 20
145.83333333333258
 11
109.15615228161641
 21
145.83333333333258
  0
LINE
  8
_8-0_
  6
CONTINUOUS
 62
    7
 10
135.51485844273657
 20
145.33333333333303
 11
109.15615228161641
 21
145.33333333333303
  0
LINE
  8
_8-0_
  6
CONTINUOUS
 62
    7
 10
136.15770550146863
 20
144.83333333333235
 11
109.15615228161641
 21
144.83333333333292
  0
LINE
  8
_8-0_
  6
CONTINUOUS
 62
    7
 10
136.65615228161641
 20
144.3333333333328
 11
109.15615228161641
 21
144.3333333333328
  0
LINE
  8
_8-0_
  6
CONTINUOUS
 62
    7
 10
136.15615228161573
 20
143.83333333333269
 11
109.15615228161641
 21
143.83333333333326
  0
LINE
  8
_8-0_
  6
CONTINUOUS
 62
    7
 10
135.65615228161619
 20
143.33333333333258
 11
109.15615228161641
 21
143.33333333333258
  0
LINE
  8
_8-0_
  6
CONTINUOUS
 62
    7
 10
135.15615228161607
 20
142.83333333333303
 11
109.15615228161641
 21
142.83333333333303
  0
LINE
  8
_8-0_
  6
CONTINUOUS
 62
    7
 10
134.65615228161596
 20
142.33333333333235
 11
109.15615228161641
 21
142.33333333333292
  0
LINE
  8
_8-0_
  6
CONTINUOUS
 62
    7
 10
134.15615228161585
 20
141.8333333333328
 11
109.15615228161641
 21
141.8333333333328
  0
LINE
  8
_8-0_
  6
CONTINUOUS
 62
    7
 10
133.65615228161573
 20
141.33333333333326
 11
109.15615228161641
 21
141.33333333333326
  0
LINE
  8
_8-0_
  6
CONTINUOUS
 62
    7
 10
133.15615228161619
 20
140.83333333333258
 11
109.15615228161641
 21
140.83333333333258
  0
LINE
  8
_8-0_
  6
CONTINUOUS
 62
    7
 10
132.6561522816155
 20
140.33333333333303
 11
109.15615228161641
 21
140.33333333333303
  0
LINE
  8
_8-0_
  6
CONTINUOUS
 62
    7
 10
132.15615228161596
 20
139.83333333333235
 11
109.15615228161641
 21
139.83333333333292
  0
LINE
  8
_8-0_
  6
CONTINUOUS
 62
    7
 10
131.65615228161641
 20
139.3333333333328
 11
109.15615228161641
 21
139.3333333333328
  0
LINE
  8
_8-0_
  6
CONTINUOUS
 62
    7
 10
131.15615228161573
 20
138.83333333333326
 11
109.15615228161641
 21
138.83333333333326
  0
LINE
  8
_8-0_
  6
CONTINUOUS
 62
    7
 10
130.65615228161619
 20
138.33333333333258
 11
109.15615228161641
 21
138.33333333333258
  0
LINE
  8
_8-0_
  6
CONTINUOUS
 62
    7
 10
130.1561522816155
 20
137.83333333333303
 11
109.15615228161641
 21
137.83333333333303
  0
LINE
  8
_8-0_
  6
CONTINUOUS
 62
    7
 10
129.65615228161596
 20
137.33333333333292
 11
109.15615228161641
 21
137.33333333333292
  0
LINE
  8
_8-0_
  6
CONTINUOUS
 62
    7
 10
129.15615228161585
 20
136.8333333333328
 11
109.15615228161641
 21
136.8333333333328
  0
LINE
  8
_8-0_
  6
CONTINUOUS
 62
    7
 10
128.65615228161573
 20
136.33333333333269
 11
109.15615228161641
 21
136.33333333333326
  0
LINE
  8
_8-0_
  6
CONTINUOUS
 62
    7
 10
128.15615228161619
 20
135.83333333333258
 11
109.15615228161641
 21
135.83333333333258
  0
LINE
  8
_8-0_
  6
CONTINUOUS
 62
    7
 10
127.65615228161607
 20
135.33333333333303
 11
109.15615228161641
 21
135.33333333333303
  0
LINE
  8
_8-0_
  6
CONTINUOUS
 62
    7
 10
127.15615228161596
 20
134.83333333333292
 11
109.15615228161641
 21
134.83333333333292
  0
LINE
  8
_8-0_
  6
CONTINUOUS
 62
    7
 10
126.65615228161585
 20
134.3333333333328
 11
109.15615228161641
 21
134.3333333333328
  0
LINE
  8
_8-0_
  6
CONTINUOUS
 62
    7
 10
126.15615228161573
 20
133.83333333333269
 11
109.15615228161641
 21
133.83333333333326
  0
LINE
  8
_8-0_
  6
CONTINUOUS
 62
    7
 10
125.65615228161619
 20
133.33333333333258
 11
109.15615228161641
 21
133.33333333333258
  0
LINE
  8
_8-0_
  6
CONTINUOUS
 62
    7
 10
125.15615228161607
 20
132.83333333333303
 11
109.15615228161641
 21
132.83333333333303
  0
LINE
  8
_8-0_
  6
CONTINUOUS
 62
    7
 10
124.65615228161596
 20
132.33333333333235
 11
109.15615228161641
 21
132.33333333333292
  0
LINE
  8
_8-0_
  6
CONTINUOUS
 62
    7
 10
124.15615228161641
 20
131.8333333333328
 11
109.15615228161641
 21
131.8333333333328
  0
LINE
  8
_8-0_
  6
CONTINUOUS
 62
    7
 10
127.49206537175326
 20
156.8333333333328
 11
109.15615228161641
 21
156.8333333333328
  0
LINE
  8
_8-0_
  6
CONTINUOUS
 62
    7
 10
127.66635713082167
 20
156.33333333333269
 11
109.15615228161641
 21
156.33333333333326
  0
LINE
  8
_8-0_
  6
CONTINUOUS
 62
    7
 10
127.85266533346999
 20
155.83333333333258
 11
109.15615228161641
 21
155.83333333333258
  0
LINE
  8
_8-0_
  6
CONTINUOUS
 62
    7
 10
128.0512803716158
 20
155.33333333333303
 11
109.15615228161641
 21
155.33333333333303
  0
LINE
  8
_8-0_
  6
CONTINUOUS
 62
    7
 10
128.26252222293078
 20
154.83333333333235
 11
109.15615228161641
 21
154.83333333333292
  0
LINE
  8
_8-0_
  6
CONTINUOUS
 62
    7
 10
128.48674350553438
 20
154.3333333333328
 11
109.15615228161641
 21
154.3333333333328
  0
LINE
  8
_8-0_
  6
CONTINUOUS
 62
    7
 10
128.72433302633908
 20
153.83333333333269
 11
109.15615228161641
 21
153.83333333333326
  0
LINE
  8
_8-0_
  6
CONTINUOUS
 62
    7
 10
128.97571991831342
 20
153.33333333333258
 11
109.15615228161641
 21
153.33333333333258
  0
LINE
  8
_8-0_
  6
CONTINUOUS
 62
    7
 10
129.24137848501573
 20
152.83333333333303
 11
109.15615228161641
 21
152.83333333333303
  0
LINE
  8
_8-0_
  6
CONTINUOUS
 62
    7
 10
129.52183390065272
 20
152.33333333333235
 11
109.15615228161641
 21
152.33333333333292
  0
LINE
  8
_8-0_
  6
CONTINUOUS
 62
    7
 10
129.81766895271051
 20
151.8333333333328
 11
109.15615228161641
 21
151.8333333333328
  0
LINE
  8
_8-0_
  6
CONTINUOUS
 62
    7
 10
130.1295320652514
 20
151.33333333333269
 11
109.15615228161641
 21
151.33333333333326
  0
LINE
  8
_8-0_
  6
CONTINUOUS
 62
    7
 10
130.45814690873272
 20
150.83333333333258
 11
109.15615228161641
 21
150.83333333333258
  0
LINE
  8
_8-0_
  6
CONTINUOUS
 62
    7
 10
130.80432399323172
 20
150.33333333333303
 11
109.15615228161641
 21
150.33333333333303
  0
LINE
  8
_8-0_
  6
CONTINUOUS
 62
    7
 10
131.16897476578742
 20
149.83333333333235
 11
109.15615228161641
 21
149.83333333333292
  0
LINE
  8
_8-0_
  6
CONTINUOUS
 62
    7
 10
131.55312890317646
 20
149.3333333333328
 11
109.15615228161641
 21
149.3333333333328
  0
LINE
  8
_8-0_
  6
CONTINUOUS
 62
    7
 10
131.95795573017961
 20
148.83333333333269
 11
109.15615228161641
 21
148.83333333333326
  0
LINE
  8
_8-0_
  6
CONTINUOUS
 62
    7
 10
132.38479103258328
 20
148.33333333333258
 11
109.15615228161641
 21
148.33333333333258
  0
LINE
  8
_8-0_
  6
CONTINUOUS
 62
    7
 10
132.83517102492567
 20
147.83333333333303
 11
109.15615228161641
 21
147.83333333333303
  0
LINE
  8
_8-0_
  6
CONTINUOUS
 62
    7
 10
133.3108759569177
 20
147.33333333333235
 11
109.15615228161641
 21
147.33333333333292
  0
LINE
  8
_8-0_
  6
CONTINUOUS
 62
    7
 10
133.81398693381698
 20
146.8333333333328
 11
109.15615228161641
 21
146.8333333333328
  0
LINE
  8
_8-0_
  6
CONTINUOUS
 62
    7
 10
134.34696121194463
 20
146.33333333333269
 11
109.15615228161641
 21
146.33333333333326
  0
LINE
  8
_8-0_
  6
CONTINUOUS
 62
    7
 10
134.91273390752212
 20
145.83333333333258
 11
109.15615228161641
 21
145.83333333333258
  0
LINE
  8
_8-0_
  6
CONTINUOUS
 62
    7
 10
135.51485844273657
 20
145.33333333333303
 11
109.15615228161641
 21
145.33333333333303
  0
LINE
  8
_8-0_
  6
CONTINUOUS
 62
    7
 10
136.15770550146863
 20
144.83333333333235
 11
109.15615228161641
 21
144.83333333333292
  0
LINE
  8
_8-0_
  6
CONTINUOUS
 62
    7
 10
136.65615228161641
 20
144.3333333333328
 11
109.15615228161641
 21
144.3333333333328
  0
LINE
  8
_8-0_
  6
CONTINUOUS
 62
    7
 10
136.15615228161573
 20
143.83333333333269
 11
109.15615228161641
 21
143.83333333333326
  0
LINE
  8
_8-0_
  6
CONTINUOUS
 62
    7
 10
135.65615228161619
 20
143.33333333333258
 11
109.15615228161641
 21
143.33333333333258
  0
LINE
  8
_8-0_
  6
CONTINUOUS
 62
    7
 10
135.15615228161607
 20
142.83333333333303
 11
109.15615228161641
 21
142.83333333333303
  0
LINE
  8
_8-0_
  6
CONTINUOUS
 62
    7
 10
134.65615228161596
 20
142.33333333333235
 11
109.15615228161641
 21
142.33333333333292
  0
LINE
  8
_8-0_
  6
CONTINUOUS
 62
    7
 10
134.15615228161585
 20
141.8333333333328
 11
109.15615228161641
 21
141.8333333333328
  0
LINE
  8
_8-0_
  6
CONTINUOUS
 62
    7
 10
133.65615228161573
 20
141.33333333333326
 11
109.15615228161641
 21
141.33333333333326
  0
LINE
  8
_8-0_
  6
CONTINUOUS
 62
    7
 10
133.15615228161619
 20
140.83333333333258
 11
109.15615228161641
 21
140.83333333333258
  0
LINE
  8
_8-0_
  6
CONTINUOUS
 62
    7
 10
132.6561522816155
 20
140.33333333333303
 11
109.15615228161641
 21
140.33333333333303
  0
LINE
  8
_8-0_
  6
CONTINUOUS
 62
    7
 10
132.15615228161596
 20
139.83333333333235
 11
109.15615228161641
 21
139.83333333333292
  0
LINE
  8
_8-0_
  6
CONTINUOUS
 62
    7
 10
131.65615228161641
 20
139.3333333333328
 11
109.15615228161641
 21
139.3333333333328
  0
LINE
  8
_8-0_
  6
CONTINUOUS
 62
    7
 10
131.15615228161573
 20
138.83333333333326
 11
109.15615228161641
 21
138.83333333333326
  0
LINE
  8
_8-0_
  6
CONTINUOUS
 62
    7
 10
130.65615228161619
 20
138.33333333333258
 11
109.15615228161641
 21
138.33333333333258
  0
LINE
  8
_8-0_
  6
CONTINUOUS
 62
    7
 10
130.1561522816155
 20
137.83333333333303
 11
109.15615228161641
 21
137.83333333333303
  0
LINE
  8
_8-0_
  6
CONTINUOUS
 62
    7
 10
129.65615228161596
 20
137.33333333333292
 11
109.15615228161641
 21
137.33333333333292
  0
LINE
  8
_8-0_
  6
CONTINUOUS
 62
    7
 10
129.15615228161585
 20
136.8333333333328
 11
109.15615228161641
 21
136.8333333333328
  0
LINE
  8
_8-0_
  6
CONTINUOUS
 62
    7
 10
128.65615228161573
 20
136.33333333333269
 11
109.15615228161641
 21
136.33333333333326
  0
LINE
  8
_8-0_
  6
CONTINUOUS
 62
    7
 10
128.15615228161619
 20
135.83333333333258
 11
109.15615228161641
 21
135.83333333333258
  0
LINE
  8
_8-0_
  6
CONTINUOUS
 62
    7
 10
127.65615228161607
 20
135.33333333333303
 11
109.15615228161641
 21
135.33333333333303
  0
LINE
  8
_8-0_
  6
CONTINUOUS
 62
    7
 10
127.15615228161596
 20
134.83333333333292
 11
109.15615228161641
 21
134.83333333333292
  0
LINE
  8
_8-0_
  6
CONTINUOUS
 62
    7
 10
126.65615228161585
 20
134.3333333333328
 11
109.15615228161641
 21
134.3333333333328
  0
LINE
  8
_8-0_
  6
CONTINUOUS
 62
    7
 10
126.15615228161573
 20
133.83333333333269
 11
109.15615228161641
 21
133.83333333333326
  0
LINE
  8
_8-0_
  6
CONTINUOUS
 62
    7
 10
125.65615228161619
 20
133.33333333333258
 11
109.15615228161641
 21
133.33333333333258
  0
LINE
  8
_8-0_
  6
CONTINUOUS
 62
    7
 10
125.15615228161607
 20
132.83333333333303
 11
109.15615228161641
 21
132.83333333333303
  0
LINE
  8
_8-0_
  6
CONTINUOUS
 62
    7
 10
124.65615228161596
 20
132.33333333333235
 11
109.15615228161641
 21
132.33333333333292
  0
LINE
  8
_8-0_
  6
CONTINUOUS
 62
    7
 10
124.15615228161641
 20
131.8333333333328
 11
109.15615228161641
 21
131.8333333333328
  0
LINE
  8
_8-0_
  6
CONTINUOUS
 62
    7
 10
127.49206537175326
 20
156.8333333333328
 11
109.15615228161641
 21
156.8333333333328
  0
LINE
  8
_8-0_
  6
CONTINUOUS
 62
    7
 10
127.66635713082167
 20
156.33333333333269
 11
109.15615228161641
 21
156.33333333333326
  0
LINE
  8
_8-0_
  6
CONTINUOUS
 62
    7
 10
127.85266533346999
 20
155.83333333333258
 11
109.15615228161641
 21
155.83333333333258
  0
LINE
  8
_8-0_
  6
CONTINUOUS
 62
    7
 10
128.0512803716158
 20
155.33333333333303
 11
109.15615228161641
 21
155.33333333333303
  0
LINE
  8
_8-0_
  6
CONTINUOUS
 62
    7
 10
128.26252222293078
 20
154.83333333333235
 11
109.15615228161641
 21
154.83333333333292
  0
LINE
  8
_8-0_
  6
CONTINUOUS
 62
    7
 10
128.48674350553438
 20
154.3333333333328
 11
109.15615228161641
 21
154.3333333333328
  0
LINE
  8
_8-0_
  6
CONTINUOUS
 62
    7
 10
128.72433302633908
 20
153.83333333333269
 11
109.15615228161641
 21
153.83333333333326
  0
LINE
  8
_8-0_
  6
CONTINUOUS
 62
    7
 10
128.97571991831342
 20
153.33333333333258
 11
109.15615228161641
 21
153.33333333333258
  0
LINE
  8
_8-0_
  6
CONTINUOUS
 62
    7
 10
129.24137848501573
 20
152.83333333333303
 11
109.15615228161641
 21
152.83333333333303
  0
LINE
  8
_8-0_
  6
CONTINUOUS
 62
    7
 10
129.52183390065272
 20
152.33333333333235
 11
109.15615228161641
 21
152.33333333333292
  0
LINE
  8
_8-0_
  6
CONTINUOUS
 62
    7
 10
129.81766895271051
 20
151.8333333333328
 11
109.15615228161641
 21
151.8333333333328
  0
LINE
  8
_8-0_
  6
CONTINUOUS
 62
    7
 10
130.1295320652514
 20
151.33333333333269
 11
109.15615228161641
 21
151.33333333333326
  0
LINE
  8
_8-0_
  6
CONTINUOUS
 62
    7
 10
130.45814690873272
 20
150.83333333333258
 11
109.15615228161641
 21
150.83333333333258
  0
LINE
  8
_8-0_
  6
CONTINUOUS
 62
    7
 10
130.80432399323172
 20
150.33333333333303
 11
109.15615228161641
 21
150.33333333333303
  0
LINE
  8
_8-0_
  6
CONTINUOUS
 62
    7
 10
131.16897476578742
 20
149.83333333333235
 11
109.15615228161641
 21
149.83333333333292
  0
LINE
  8
_8-0_
  6
CONTINUOUS
 62
    7
 10
131.55312890317646
 20
149.3333333333328
 11
109.15615228161641
 21
149.3333333333328
  0
LINE
  8
_8-0_
  6
CONTINUOUS
 62
    7
 10
131.95795573017961
 20
148.83333333333269
 11
109.15615228161641
 21
148.83333333333326
  0
LINE
  8
_8-0_
  6
CONTINUOUS
 62
    7
 10
132.38479103258328
 20
148.33333333333258
 11
109.15615228161641
 21
148.33333333333258
  0
LINE
  8
_8-0_
  6
CONTINUOUS
 62
    7
 10
132.83517102492567
 20
147.83333333333303
 11
109.15615228161641
 21
147.83333333333303
  0
LINE
  8
_8-0_
  6
CONTINUOUS
 62
    7
 10
133.3108759569177
 20
147.33333333333235
 11
109.15615228161641
 21
147.33333333333292
  0
LINE
  8
_8-0_
  6
CONTINUOUS
 62
    7
 10
133.81398693381698
 20
146.8333333333328
 11
109.15615228161641
 21
146.8333333333328
  0
LINE
  8
_8-0_
  6
CONTINUOUS
 62
    7
 10
134.34696121194463
 20
146.33333333333269
 11
109.15615228161641
 21
146.33333333333326
  0
LINE
  8
_8-0_
  6
CONTINUOUS
 62
    7
 10
134.91273390752212
 20
145.83333333333258
 11
109.15615228161641
 21
145.83333333333258
  0
LINE
  8
_8-0_
  6
CONTINUOUS
 62
    7
 10
135.51485844273657
 20
145.33333333333303
 11
109.15615228161641
 21
145.33333333333303
  0
LINE
  8
_8-0_
  6
CONTINUOUS
 62
    7
 10
136.15770550146863
 20
144.83333333333235
 11
109.15615228161641
 21
144.83333333333292
  0
LINE
  8
_8-0_
  6
CONTINUOUS
 62
    7
 10
136.65615228161641
 20
144.3333333333328
 11
109.15615228161641
 21
144.3333333333328
  0
LINE
  8
_8-0_
  6
CONTINUOUS
 62
    7
 10
136.15615228161573
 20
143.83333333333269
 11
109.15615228161641
 21
143.83333333333326
  0
LINE
  8
_8-0_
  6
CONTINUOUS
 62
    7
 10
135.65615228161619
 20
143.33333333333258
 11
109.15615228161641
 21
143.33333333333258
  0
LINE
  8
_8-0_
  6
CONTINUOUS
 62
    7
 10
135.15615228161607
 20
142.83333333333303
 11
109.15615228161641
 21
142.83333333333303
  0
LINE
  8
_8-0_
  6
CONTINUOUS
 62
    7
 10
134.65615228161596
 20
142.33333333333235
 11
109.15615228161641
 21
142.33333333333292
  0
LINE
  8
_8-0_
  6
CONTINUOUS
 62
    7
 10
134.15615228161585
 20
141.8333333333328
 11
109.15615228161641
 21
141.8333333333328
  0
LINE
  8
_8-0_
  6
CONTINUOUS
 62
    7
 10
133.65615228161573
 20
141.33333333333326
 11
109.15615228161641
 21
141.33333333333326
  0
LINE
  8
_8-0_
  6
CONTINUOUS
 62
    7
 10
133.15615228161619
 20
140.83333333333258
 11
109.15615228161641
 21
140.83333333333258
  0
LINE
  8
_8-0_
  6
CONTINUOUS
 62
    7
 10
132.6561522816155
 20
140.33333333333303
 11
109.15615228161641
 21
140.33333333333303
  0
LINE
  8
_8-0_
  6
CONTINUOUS
 62
    7
 10
132.15615228161596
 20
139.83333333333235
 11
109.15615228161641
 21
139.83333333333292
  0
LINE
  8
_8-0_
  6
CONTINUOUS
 62
    7
 10
131.65615228161641
 20
139.3333333333328
 11
109.15615228161641
 21
139.3333333333328
  0
LINE
  8
_8-0_
  6
CONTINUOUS
 62
    7
 10
131.15615228161573
 20
138.83333333333326
 11
109.15615228161641
 21
138.83333333333326
  0
LINE
  8
_8-0_
  6
CONTINUOUS
 62
    7
 10
130.65615228161619
 20
138.33333333333258
 11
109.15615228161641
 21
138.33333333333258
  0
LINE
  8
_8-0_
  6
CONTINUOUS
 62
    7
 10
130.1561522816155
 20
137.83333333333303
 11
109.15615228161641
 21
137.83333333333303
  0
LINE
  8
_8-0_
  6
CONTINUOUS
 62
    7
 10
129.65615228161596
 20
137.33333333333292
 11
109.15615228161641
 21
137.33333333333292
  0
LINE
  8
_8-0_
  6
CONTINUOUS
 62
    7
 10
129.15615228161585
 20
136.8333333333328
 11
109.15615228161641
 21
136.8333333333328
  0
LINE
  8
_8-0_
  6
CONTINUOUS
 62
    7
 10
128.65615228161573
 20
136.33333333333269
 11
109.15615228161641
 21
136.33333333333326
  0
LINE
  8
_8-0_
  6
CONTINUOUS
 62
    7
 10
128.15615228161619
 20
135.83333333333258
 11
109.15615228161641
 21
135.83333333333258
  0
LINE
  8
_8-0_
  6
CONTINUOUS
 62
    7
 10
127.65615228161607
 20
135.33333333333303
 11
109.15615228161641
 21
135.33333333333303
  0
LINE
  8
_8-0_
  6
CONTINUOUS
 62
    7
 10
127.15615228161596
 20
134.83333333333292
 11
109.15615228161641
 21
134.83333333333292
  0
LINE
  8
_8-0_
  6
CONTINUOUS
 62
    7
 10
126.65615228161585
 20
134.3333333333328
 11
109.15615228161641
 21
134.3333333333328
  0
LINE
  8
_8-0_
  6
CONTINUOUS
 62
    7
 10
126.15615228161573
 20
133.83333333333269
 11
109.15615228161641
 21
133.83333333333326
  0
LINE
  8
_8-0_
  6
CONTINUOUS
 62
    7
 10
125.65615228161619
 20
133.33333333333258
 11
109.15615228161641
 21
133.33333333333258
  0
LINE
  8
_8-0_
  6
CONTINUOUS
 62
    7
 10
125.15615228161607
 20
132.83333333333303
 11
109.15615228161641
 21
132.83333333333303
  0
LINE
  8
_8-0_
  6
CONTINUOUS
 62
    7
 10
124.65615228161596
 20
132.33333333333235
 11
109.15615228161641
 21
132.33333333333292
  0
LINE
  8
_8-0_
  6
CONTINUOUS
 62
    7
 10
124.15615228161641
 20
131.8333333333328
 11
109.15615228161641
 21
131.8333333333328
  0
LINE
  8
_8-0_
  6
CONTINUOUS
 62
    7
 10
123.65615228161573
 20
131.33333333333326
 11
109.15615228161641
 21
131.33333333333326
  0
LINE
  8
_8-0_
  6
CONTINUOUS
 62
    7
 10
123.15615228161619
 20
130.83333333333258
 11
109.15615228161641
 21
130.83333333333258
  0
LINE
  8
_8-0_
  6
CONTINUOUS
 62
    7
 10
122.6561522816155
 20
130.33333333333303
 11
109.15615228161641
 21
130.33333333333303
  0
LINE
  8
_8-0_
  6
CONTINUOUS
 62
    7
 10
122.15615228161596
 20
129.83333333333235
 11
109.15615228161641
 21
129.83333333333292
  0
LINE
  8
_8-0_
  6
CONTINUOUS
 62
    7
 10
121.65615228161641
 20
129.3333333333328
 11
109.15615228161641
 21
129.3333333333328
  0
LINE
  8
_8-0_
  6
CONTINUOUS
 62
    7
 10
121.15615228161573
 20
128.83333333333326
 11
109.15615228161641
 21
128.83333333333326
  0
LINE
  8
_8-0_
  6
CONTINUOUS
 62
    7
 10
120.65615228161619
 20
128.33333333333258
 11
109.15615228161641
 21
128.33333333333258
  0
LINE
  8
_8-0_
  6
CONTINUOUS
 62
    7
 10
120.1561522816155
 20
127.83333333333303
 11
109.15615228161641
 21
127.83333333333303
  0
LINE
  8
_8-0_
  6
CONTINUOUS
 62
    7
 10
119.65615228161596
 20
127.33333333333292
 11
109.15615228161641
 21
127.33333333333292
  0
LINE
  8
_8-0_
  6
CONTINUOUS
 62
    7
 10
119.15615228161641
 20
126.8333333333328
 11
109.15615228161641
 21
126.8333333333328
  0
LINE
  8
_8-0_
  6
CONTINUOUS
 62
    7
 10
118.65615228161573
 20
126.33333333333269
 11
109.15615228161641
 21
126.33333333333326
  0
LINE
  8
_8-0_
  6
CONTINUOUS
 62
    7
 10
118.15615228161619
 20
125.83333333333258
 11
109.15615228161641
 21
125.83333333333258
  0
LINE
  8
_8-0_
  6
CONTINUOUS
 62
    7
 10
117.6561522816155
 20
125.33333333333303
 11
109.15615228161641
 21
125.33333333333303
  0
LINE
  8
_8-0_
  6
CONTINUOUS
 62
    7
 10
117.15615228161596
 20
124.83333333333292
 11
109.15615228161641
 21
124.83333333333292
  0
LINE
  8
_8-0_
  6
CONTINUOUS
 62
    7
 10
116.65615228161585
 20
124.3333333333328
 11
109.15615228161641
 21
124.3333333333328
  0
LINE
  8
_8-0_
  6
CONTINUOUS
 62
    7
 10
116.15615228161573
 20
123.83333333333269
 11
109.15615228161641
 21
123.83333333333326
  0
LINE
  8
_8-0_
  6
CONTINUOUS
 62
    7
 10
115.65615228161619
 20
123.33333333333258
 11
109.15615228161641
 21
123.33333333333258
  0
LINE
  8
_8-0_
  6
CONTINUOUS
 62
    7
 10
115.15615228161607
 20
122.83333333333303
 11
109.15615228161641
 21
122.83333333333303
  0
LINE
  8
_8-0_
  6
CONTINUOUS
 62
    7
 10
114.65615228161596
 20
122.33333333333235
 11
109.15615228161641
 21
122.33333333333292
  0
LINE
  8
_8-0_
  6
CONTINUOUS
 62
    7
 10
114.15615228161585
 20
121.8333333333328
 11
109.15615228161641
 21
121.8333333333328
  0
LINE
  8
_8-0_
  6
CONTINUOUS
 62
    7
 10
113.65615228161573
 20
121.33333333333326
 11
109.15615228161641
 21
121.33333333333326
  0
LINE
  8
_8-0_
  6
CONTINUOUS
 62
    7
 10
113.15615228161619
 20
120.83333333333258
 11
109.15615228161641
 21
120.83333333333258
  0
LINE
  8
_8-0_
  6
CONTINUOUS
 62
    7
 10
112.65615228161607
 20
120.33333333333303
 11
109.15615228161641
 21
120.33333333333303
  0
LINE
  8
_8-0_
  6
CONTINUOUS
 62
    7
 10
112.15615228161596
 20
119.83333333333235
 11
109.15615228161641
 21
119.83333333333292
  0
LINE
  8
_8-0_
  6
CONTINUOUS
 62
    7
 10
111.65615228161641
 20
119.3333333333328
 11
109.15615228161641
 21
119.3333333333328
  0
LINE
  8
_8-0_
  6
CONTINUOUS
 62
    7
 10
111.15615228161573
 20
118.83333333333326
 11
109.15615228161641
 21
118.83333333333326
  0
LINE
  8
_8-0_
  6
CONTINUOUS
 62
    7
 10
110.65615228161619
 20
118.33333333333258
 11
109.15615228161641
 21
118.33333333333258
  0
LINE
  8
_8-0_
  6
CONTINUOUS
 62
    7
 10
110.1561522816155
 20
117.83333333333303
 11
109.15615228161641
 21
117.83333333333303
  0
LINE
  8
_8-0_
  6
CONTINUOUS
 62
    7
 10
109.65615228161596
 20
117.33333333333235
 11
109.15615228161641
 21
117.33333333333292
  0
LINE
  8
_8-0_
  6
CONTINUOUS
 62
    7
 10
123.65615228161573
 20
131.33333333333326
 11
109.15615228161641
 21
131.33333333333326
  0
LINE
  8
_8-0_
  6
CONTINUOUS
 62
    7
 10
123.15615228161619
 20
130.83333333333258
 11
109.15615228161641
 21
130.83333333333258
  0
LINE
  8
_8-0_
  6
CONTINUOUS
 62
    7
 10
122.6561522816155
 20
130.33333333333303
 11
109.15615228161641
 21
130.33333333333303
  0
LINE
  8
_8-0_
  6
CONTINUOUS
 62
    7
 10
122.15615228161596
 20
129.83333333333235
 11
109.15615228161641
 21
129.83333333333292
  0
LINE
  8
_8-0_
  6
CONTINUOUS
 62
    7
 10
121.65615228161641
 20
129.3333333333328
 11
109.15615228161641
 21
129.3333333333328
  0
LINE
  8
_8-0_
  6
CONTINUOUS
 62
    7
 10
121.15615228161573
 20
128.83333333333326
 11
109.15615228161641
 21
128.83333333333326
  0
LINE
  8
_8-0_
  6
CONTINUOUS
 62
    7
 10
120.65615228161619
 20
128.33333333333258
 11
109.15615228161641
 21
128.33333333333258
  0
LINE
  8
_8-0_
  6
CONTINUOUS
 62
    7
 10
120.1561522816155
 20
127.83333333333303
 11
109.15615228161641
 21
127.83333333333303
  0
LINE
  8
_8-0_
  6
CONTINUOUS
 62
    7
 10
119.65615228161596
 20
127.33333333333292
 11
109.15615228161641
 21
127.33333333333292
  0
LINE
  8
_8-0_
  6
CONTINUOUS
 62
    7
 10
119.15615228161641
 20
126.8333333333328
 11
109.15615228161641
 21
126.8333333333328
  0
LINE
  8
_8-0_
  6
CONTINUOUS
 62
    7
 10
118.65615228161573
 20
126.33333333333269
 11
109.15615228161641
 21
126.33333333333326
  0
LINE
  8
_8-0_
  6
CONTINUOUS
 62
    7
 10
118.15615228161619
 20
125.83333333333258
 11
109.15615228161641
 21
125.83333333333258
  0
LINE
  8
_8-0_
  6
CONTINUOUS
 62
    7
 10
117.6561522816155
 20
125.33333333333303
 11
109.15615228161641
 21
125.33333333333303
  0
LINE
  8
_8-0_
  6
CONTINUOUS
 62
    7
 10
117.15615228161596
 20
124.83333333333292
 11
109.15615228161641
 21
124.83333333333292
  0
LINE
  8
_8-0_
  6
CONTINUOUS
 62
    7
 10
116.65615228161585
 20
124.3333333333328
 11
109.15615228161641
 21
124.3333333333328
  0
LINE
  8
_8-0_
  6
CONTINUOUS
 62
    7
 10
116.15615228161573
 20
123.83333333333269
 11
109.15615228161641
 21
123.83333333333326
  0
LINE
  8
_8-0_
  6
CONTINUOUS
 62
    7
 10
115.65615228161619
 20
123.33333333333258
 11
109.15615228161641
 21
123.33333333333258
  0
LINE
  8
_8-0_
  6
CONTINUOUS
 62
    7
 10
115.15615228161607
 20
122.83333333333303
 11
109.15615228161641
 21
122.83333333333303
  0
LINE
  8
_8-0_
  6
CONTINUOUS
 62
    7
 10
114.65615228161596
 20
122.33333333333235
 11
109.15615228161641
 21
122.33333333333292
  0
LINE
  8
_8-0_
  6
CONTINUOUS
 62
    7
 10
114.15615228161585
 20
121.8333333333328
 11
109.15615228161641
 21
121.8333333333328
  0
LINE
  8
_8-0_
  6
CONTINUOUS
 62
    7
 10
113.65615228161573
 20
121.33333333333326
 11
109.15615228161641
 21
121.33333333333326
  0
LINE
  8
_8-0_
  6
CONTINUOUS
 62
    7
 10
113.15615228161619
 20
120.83333333333258
 11
109.15615228161641
 21
120.83333333333258
  0
LINE
  8
_8-0_
  6
CONTINUOUS
 62
    7
 10
112.65615228161607
 20
120.33333333333303
 11
109.15615228161641
 21
120.33333333333303
  0
LINE
  8
_8-0_
  6
CONTINUOUS
 62
    7
 10
112.15615228161596
 20
119.83333333333235
 11
109.15615228161641
 21
119.83333333333292
  0
LINE
  8
_8-0_
  6
CONTINUOUS
 62
    7
 10
111.65615228161641
 20
119.3333333333328
 11
109.15615228161641
 21
119.3333333333328
  0
LINE
  8
_8-0_
  6
CONTINUOUS
 62
    7
 10
111.15615228161573
 20
118.83333333333326
 11
109.15615228161641
 21
118.83333333333326
  0
LINE
  8
_8-0_
  6
CONTINUOUS
 62
    7
 10
110.65615228161619
 20
118.33333333333258
 11
109.15615228161641
 21
118.33333333333258
  0
LINE
  8
_8-0_
  6
CONTINUOUS
 62
    7
 10
110.1561522816155
 20
117.83333333333303
 11
109.15615228161641
 21
117.83333333333303
  0
LINE
  8
_8-0_
  6
CONTINUOUS
 62
    7
 10
109.65615228161596
 20
117.33333333333235
 11
109.15615228161641
 21
117.33333333333292
  0
LINE
  8
_8-0_
  6
CONTINUOUS
 62
    7
 10
123.65615228161573
 20
131.33333333333326
 11
109.15615228161641
 21
131.33333333333326
  0
LINE
  8
_8-0_
  6
CONTINUOUS
 62
    7
 10
123.15615228161619
 20
130.83333333333258
 11
109.15615228161641
 21
130.83333333333258
  0
LINE
  8
_8-0_
  6
CONTINUOUS
 62
    7
 10
122.6561522816155
 20
130.33333333333303
 11
109.15615228161641
 21
130.33333333333303
  0
LINE
  8
_8-0_
  6
CONTINUOUS
 62
    7
 10
122.15615228161596
 20
129.83333333333235
 11
109.15615228161641
 21
129.83333333333292
  0
LINE
  8
_8-0_
  6
CONTINUOUS
 62
    7
 10
121.65615228161641
 20
129.3333333333328
 11
109.15615228161641
 21
129.3333333333328
  0
LINE
  8
_8-0_
  6
CONTINUOUS
 62
    7
 10
121.15615228161573
 20
128.83333333333326
 11
109.15615228161641
 21
128.83333333333326
  0
LINE
  8
_8-0_
  6
CONTINUOUS
 62
    7
 10
120.65615228161619
 20
128.33333333333258
 11
109.15615228161641
 21
128.33333333333258
  0
LINE
  8
_8-0_
  6
CONTINUOUS
 62
    7
 10
120.1561522816155
 20
127.83333333333303
 11
109.15615228161641
 21
127.83333333333303
  0
LINE
  8
_8-0_
  6
CONTINUOUS
 62
    7
 10
119.65615228161596
 20
127.33333333333292
 11
109.15615228161641
 21
127.33333333333292
  0
LINE
  8
_8-0_
  6
CONTINUOUS
 62
    7
 10
119.15615228161641
 20
126.8333333333328
 11
109.15615228161641
 21
126.8333333333328
  0
LINE
  8
_8-0_
  6
CONTINUOUS
 62
    7
 10
118.65615228161573
 20
126.33333333333269
 11
109.15615228161641
 21
126.33333333333326
  0
LINE
  8
_8-0_
  6
CONTINUOUS
 62
    7
 10
118.15615228161619
 20
125.83333333333258
 11
109.15615228161641
 21
125.83333333333258
  0
LINE
  8
_8-0_
  6
CONTINUOUS
 62
    7
 10
117.6561522816155
 20
125.33333333333303
 11
109.15615228161641
 21
125.33333333333303
  0
LINE
  8
_8-0_
  6
CONTINUOUS
 62
    7
 10
117.15615228161596
 20
124.83333333333292
 11
109.15615228161641
 21
124.83333333333292
  0
LINE
  8
_8-0_
  6
CONTINUOUS
 62
    7
 10
116.65615228161585
 20
124.3333333333328
 11
109.15615228161641
 21
124.3333333333328
  0
LINE
  8
_8-0_
  6
CONTINUOUS
 62
    7
 10
116.15615228161573
 20
123.83333333333269
 11
109.15615228161641
 21
123.83333333333326
  0
LINE
  8
_8-0_
  6
CONTINUOUS
 62
    7
 10
115.65615228161619
 20
123.33333333333258
 11
109.15615228161641
 21
123.33333333333258
  0
LINE
  8
_8-0_
  6
CONTINUOUS
 62
    7
 10
115.15615228161607
 20
122.83333333333303
 11
109.15615228161641
 21
122.83333333333303
  0
LINE
  8
_8-0_
  6
CONTINUOUS
 62
    7
 10
114.65615228161596
 20
122.33333333333235
 11
109.15615228161641
 21
122.33333333333292
  0
LINE
  8
_8-0_
  6
CONTINUOUS
 62
    7
 10
114.15615228161585
 20
121.8333333333328
 11
109.15615228161641
 21
121.8333333333328
  0
LINE
  8
_8-0_
  6
CONTINUOUS
 62
    7
 10
113.65615228161573
 20
121.33333333333326
 11
109.15615228161641
 21
121.33333333333326
  0
LINE
  8
_8-0_
  6
CONTINUOUS
 62
    7
 10
113.15615228161619
 20
120.83333333333258
 11
109.15615228161641
 21
120.83333333333258
  0
LINE
  8
_8-0_
  6
CONTINUOUS
 62
    7
 10
112.65615228161607
 20
120.33333333333303
 11
109.15615228161641
 21
120.33333333333303
  0
LINE
  8
_8-0_
  6
CONTINUOUS
 62
    7
 10
112.15615228161596
 20
119.83333333333235
 11
109.15615228161641
 21
119.83333333333292
  0
LINE
  8
_8-0_
  6
CONTINUOUS
 62
    7
 10
111.65615228161641
 20
119.3333333333328
 11
109.15615228161641
 21
119.3333333333328
  0
LINE
  8
_8-0_
  6
CONTINUOUS
 62
    7
 10
111.15615228161573
 20
118.83333333333326
 11
109.15615228161641
 21
118.83333333333326
  0
LINE
  8
_8-0_
  6
CONTINUOUS
 62
    7
 10
110.65615228161619
 20
118.33333333333258
 11
109.15615228161641
 21
118.33333333333258
  0
LINE
  8
_8-0_
  6
CONTINUOUS
 62
    7
 10
110.1561522816155
 20
117.83333333333303
 11
109.15615228161641
 21
117.83333333333303
  0
LINE
  8
_8-0_
  6
CONTINUOUS
 62
    7
 10
109.65615228161596
 20
117.33333333333235
 11
109.15615228161641
 21
117.33333333333292
  0
LINE
  8
_8-0_
  6
CONTINUOUS
 62
    7
 10
123.65615228161573
 20
131.33333333333326
 11
109.15615228161641
 21
131.33333333333326
  0
LINE
  8
_8-0_
  6
CONTINUOUS
 62
    7
 10
123.15615228161619
 20
130.83333333333258
 11
109.15615228161641
 21
130.83333333333258
  0
LINE
  8
_8-0_
  6
CONTINUOUS
 62
    7
 10
122.6561522816155
 20
130.33333333333303
 11
109.15615228161641
 21
130.33333333333303
  0
LINE
  8
_8-0_
  6
CONTINUOUS
 62
    7
 10
122.15615228161596
 20
129.83333333333235
 11
109.15615228161641
 21
129.83333333333292
  0
LINE
  8
_8-0_
  6
CONTINUOUS
 62
    7
 10
121.65615228161641
 20
129.3333333333328
 11
109.15615228161641
 21
129.3333333333328
  0
LINE
  8
_8-0_
  6
CONTINUOUS
 62
    7
 10
121.15615228161573
 20
128.83333333333326
 11
109.15615228161641
 21
128.83333333333326
  0
LINE
  8
_8-0_
  6
CONTINUOUS
 62
    7
 10
120.65615228161619
 20
128.33333333333258
 11
109.15615228161641
 21
128.33333333333258
  0
LINE
  8
_8-0_
  6
CONTINUOUS
 62
    7
 10
120.1561522816155
 20
127.83333333333303
 11
109.15615228161641
 21
127.83333333333303
  0
LINE
  8
_8-0_
  6
CONTINUOUS
 62
    7
 10
119.65615228161596
 20
127.33333333333292
 11
109.15615228161641
 21
127.33333333333292
  0
LINE
  8
_8-0_
  6
CONTINUOUS
 62
    7
 10
119.15615228161641
 20
126.8333333333328
 11
109.15615228161641
 21
126.8333333333328
  0
LINE
  8
_8-0_
  6
CONTINUOUS
 62
    7
 10
118.65615228161573
 20
126.33333333333269
 11
109.15615228161641
 21
126.33333333333326
  0
LINE
  8
_8-0_
  6
CONTINUOUS
 62
    7
 10
118.15615228161619
 20
125.83333333333258
 11
109.15615228161641
 21
125.83333333333258
  0
LINE
  8
_8-0_
  6
CONTINUOUS
 62
    7
 10
117.6561522816155
 20
125.33333333333303
 11
109.15615228161641
 21
125.33333333333303
  0
LINE
  8
_8-0_
  6
CONTINUOUS
 62
    7
 10
117.15615228161596
 20
124.83333333333292
 11
109.15615228161641
 21
124.83333333333292
  0
LINE
  8
_8-0_
  6
CONTINUOUS
 62
    7
 10
116.65615228161585
 20
124.3333333333328
 11
109.15615228161641
 21
124.3333333333328
  0
LINE
  8
_8-0_
  6
CONTINUOUS
 62
    7
 10
116.15615228161573
 20
123.83333333333269
 11
109.15615228161641
 21
123.83333333333326
  0
LINE
  8
_8-0_
  6
CONTINUOUS
 62
    7
 10
115.65615228161619
 20
123.33333333333258
 11
109.15615228161641
 21
123.33333333333258
  0
LINE
  8
_8-0_
  6
CONTINUOUS
 62
    7
 10
115.15615228161607
 20
122.83333333333303
 11
109.15615228161641
 21
122.83333333333303
  0
LINE
  8
_8-0_
  6
CONTINUOUS
 62
    7
 10
114.65615228161596
 20
122.33333333333235
 11
109.15615228161641
 21
122.33333333333292
  0
LINE
  8
_8-0_
  6
CONTINUOUS
 62
    7
 10
114.15615228161585
 20
121.8333333333328
 11
109.15615228161641
 21
121.8333333333328
  0
LINE
  8
_8-0_
  6
CONTINUOUS
 62
    7
 10
113.65615228161573
 20
121.33333333333326
 11
109.15615228161641
 21
121.33333333333326
  0
LINE
  8
_8-0_
  6
CONTINUOUS
 62
    7
 10
113.15615228161619
 20
120.83333333333258
 11
109.15615228161641
 21
120.83333333333258
  0
LINE
  8
_8-0_
  6
CONTINUOUS
 62
    7
 10
112.65615228161607
 20
120.33333333333303
 11
109.15615228161641
 21
120.33333333333303
  0
LINE
  8
_8-0_
  6
CONTINUOUS
 62
    7
 10
112.15615228161596
 20
119.83333333333235
 11
109.15615228161641
 21
119.83333333333292
  0
LINE
  8
_8-0_
  6
CONTINUOUS
 62
    7
 10
111.65615228161641
 20
119.3333333333328
 11
109.15615228161641
 21
119.3333333333328
  0
LINE
  8
_8-0_
  6
CONTINUOUS
 62
    7
 10
111.15615228161573
 20
118.83333333333326
 11
109.15615228161641
 21
118.83333333333326
  0
LINE
  8
_8-0_
  6
CONTINUOUS
 62
    7
 10
110.65615228161619
 20
118.33333333333258
 11
109.15615228161641
 21
118.33333333333258
  0
LINE
  8
_8-0_
  6
CONTINUOUS
 62
    7
 10
110.1561522816155
 20
117.83333333333303
 11
109.15615228161641
 21
117.83333333333303
  0
LINE
  8
_8-0_
  6
CONTINUOUS
 62
    7
 10
109.65615228161596
 20
117.33333333333235
 11
109.15615228161641
 21
117.33333333333292
  0
LINE
  8
_8-0_
  6
CONTINUOUS
 62
    7
 10
492.65520800142099
 20
229.20694400189518
 11
470.63345286894901
 21
191.06414524061222
  0
LINE
  8
_8-0_
  6
CONTINUOUS
 62
    7
 10
470.63345286894901
 20
191.06414524061222
 11
514.67696313389411
 21
191.06414524061222
  0
LINE
  8
_8-0_
  6
CONTINUOUS
 62
    7
 10
514.67696313389411
 20
191.06414524061222
 11
492.65520800142099
 21
229.20694400189518
  0
LINE
  8
_8-0_
  6

 62
    7
 10
532.65520800142099
 20
235.20694400189541
 11
532.65520800142099
 21
85.206944001895408
  0
LINE
  8
_8-0_
  6
CONTINUOUS
 62
    7
 10
1241.3052080014211
 20
235.20694400189541
 11
1241.3052080014211
 21
85
  0
LINE
  8
_8-0_
  6
CONTINUOUS
 62
    7
 10
492.65520800142099
 20
179.20694400189518
 11
470.63345286894901
 21
141.06414524061222
  0
LINE
  8
_8-0_
  6
CONTINUOUS
 62
    7
 10
470.63345286894901
 20
141.06414524061222
 11
514.67696313389411
 21
141.06414524061222
  0
LINE
  8
_8-0_
  6
CONTINUOUS
 62
    7
 10
514.67696313389411
 20
141.06414524061222
 11
492.65520800142099
 21
179.20694400189518
  0
LINE
  8
_8-0_
  6
CONTINUOUS
 62
    7
 10
492.65520800142099
 20
129.20694400189518
 11
470.63345286894901
 21
91.06414524061222
  0
LINE
  8
_8-0_
  6
CONTINUOUS
 62
    7
 10
470.63345286894901
 20
91.06414524061222
 11
514.67696313389411
 21
91.06414524061222
  0
LINE
  8
_8-0_
  6
CONTINUOUS
 62
    7
 10
514.67696313389411
 20
91.06414524061222
 11
492.65520800142099
 21
129.20694400189518
  0
TEXT
  8
_8-0_
 62
    7
 10
3821.691427619513
 20
208.22951344633907
 40
16.977430555555628
 41
1.000000000000002
 50
0
  1
.
  0
TEXT
  8
_8-0_
 62
    7
 10
146.32760400071106
 20
141.20694400189564
 40
27.999999999999829
 41
1.0000000000000062
 50
0
  1
âXâJâCâëâCâgâ`âàü[âu
  0
TEXT
  8
_8-0_
 62
    7
 10
239.59226480918403
 20
114.59787232705935
 40
20
 41
1
 50
0
  1
æ¥ùzî§Åãû¥âVâXâeâÇ
  0
TEXT
  8
_8-0_
 62
    7
 10
2955.1320743208657
 20
205.81794660606192
 40
20
 41
1
 50
0
  1
ô·òt
  0
TEXT
  8
_8-0_
 62
    7
 10
2562.4471784875323
 20
200.43209591161713
 40
20
 41
1
 50
0
  1
É}û╩û╝
  0
TEXT
  8
_8-0_
 62
    7
 10
1963.3153425500318
 20
200.43209591161713
 40
20
 41
1
 50
0
  1
ê─îÅû╝
  0
TEXT
  8
_8-0_
 62
    7
 10
2958.8941185916983
 20
130.23917056439473
 40
20
 41
1
 50
0
  1
Ä┌ôx
  0
TEXT
  8
_8-0_
 62
    7
 10
3238.5082678972549
 20
205.23917056439473
 40
20
 41
1
 50
0
  1
É╗É}
  0
TEXT
  8
_8-0_
 62
    7
 10
3638.7011932444775
 20
205.23917056439473
 40
20
 41
1
 50
0
  1
ÆSôûÄÊ
  0
TEXT
  8
_8-0_
 62
    7
 10
3787.7365665083653
 20
208.22951344633907
 40
20
 41
1
 50
0
  1
éméÅ
  0
TEXT
  8
_8-0_
 62
    7
 10
3280.1447921627664
 20
150.39222318971269
 40
27.999999999999829
 41
1.0000000000000064
 50
0
  1
èöÄ«ë´Äð
  0
TEXT
  8
_8-0_
 62
    7
 10
3407.6613108684787
 20
149.45694400189495
 40
34.000000000000057
 41
0.9999999999999978
 50
0
  1
êõ öV Åñ
  0
TEXT
  8
_8-0_
 62
    7
 10
424.13579173435096
 20
118.95694335976373
 40
5.4294704861111143
 41
0.9999999999999993
 50
0
  1
ésél
  0
TEXT
  8
_8-0_
 62
    7
 10
439.76265166090684
 20
163.32770250263422
 40
5
 41
1
 50
0
  1
éq
  0
TEXT
  8
_8-0_
 62
    7
 10
486.27168527414824
 20
195.27841149437336
 40
21.000000000000014
 41
1.0000000000000033
 50
0
  1
1
  0
TEXT
  8
_8-0_
 62
    7
 10
485.01884436505918
 20
145.27841149437336
 40
20.999999999999996
 41
1.0000000000000042
 50
0
  1
2
  0
TEXT
  8
_8-0_
 62
    7
 10
485.01884436505691
 20
95.278411494373358
 40
20.999999999999996
 41
0.9999999999999974
 50
0
  1
3
  0
LINE
  8
_0-3_âh__âÇ
  6
CONTINUOUS
 62
    7
 10
4074.6095827680947
 20
1054.1014147615087
 11
2324.6095827675349
 21
1054.1014147615087
  0
LINE
  8
_0-3_âh__âÇ
  6
CONTINUOUS
 62
    7
 10
4074.6095827680947
 20
2864.1014147615087
 11
4074.6095827680947
 21
1054.1014147615087
  0
LINE
  8
_f-f_
  6
CONTINUOUS
 62
    7
 10
2324.6095827675349
 20
2864.1014147615087
 11
4074.6095827680947
 21
2864.1014147615087
  0
LINE
  8
_0-3_âh__âÇ
  6
CONTINUOUS
 62
    7
 10
2324.6095827675349
 20
1054.1014147615087
 11
2324.6095827675349
 21
2864.1014147615087
  0
TEXT
  8
_0-3_âh__âÇ
 62
    7
 10
2398.1095827680947
 20
2774.3230736918144
 40
33.954861111110972
 41
1.1764705882352988
 50
0
  1
ö[é▄éÞÄûùß
  0
LINE
  8
_0-3_âh__âÇ
  6
CONTINUOUS
 62
    7
 10
2368.1095827680947
 20
2830.7119625807036
 11
2651.1095827680947
 21
2830.7119625807036
  0
LINE
  8
_0-3_âh__âÇ
  6
CONTINUOUS
 62
    7
 10
2651.1095827680947
 20
2830.7119625807036
 11
2651.1095827680947
 21
2756.7119625807031
  0
LINE
  8
_0-3_âh__âÇ
  6
CONTINUOUS
 62
    7
 10
2651.1095827680947
 20
2756.7119625807031
 11
2368.1095827680947
 21
2756.7119625807031
  0
LINE
  8
_0-3_âh__âÇ
  6
CONTINUOUS
 62
    7
 10
2368.1095827680947
 20
2756.7119625807031
 11
2368.1095827680947
 21
2830.7119625807036
  0
LINE
  8
_0-3_âh__âÇ
  6
CONTINUOUS
 62
    7
 10
3350.513626906275
 20
1213.9992173275123
 11
3350.513626906275
 21
1127.2641258043286
  0
TEXT
  8
_0-3_âh__âÇ
 62
    7
 10
2498.3768162239762
 20
2329.0570617466492
 40
24.432617187500085
 41
1.1764705882352906
 50
0
  1
âïü[âtâxü[âX
  0
TEXT
  8
_0-3_âh__âÇ
 62
    7
 10
2498.3768162239762
 20
2297.3070617466492
 40
24.432617187500085
 41
1.1764705882352906
 50
0
  1
üiëJëƒéªö┬üj
  0
LINE
  8
_0-3_âh__âÇ
  6
CONTINUOUS
 62
    7
 10
2479.6095827680947
 20
2363.0310972370844
 11
2689.6095827680947
 21
2363.0310972370844
  0
LINE
  8
_0-3_âh__âÇ
  6
CONTINUOUS
 62
    7
 10
2689.6095827680947
 20
2363.0310972370844
 11
2689.6095827680947
 21
2283.0310972370839
  0
LINE
  8
_0-3_âh__âÇ
  6
CONTINUOUS
 62
    7
 10
2689.6095827680947
 20
2283.0310972370839
 11
2479.6095827680947
 21
2283.0310972370839
  0
LINE
  8
_0-3_âh__âÇ
  6
CONTINUOUS
 62
    7
 10
2479.6095827680947
 20
2283.0310972370839
 11
2479.6095827680947
 21
2363.0310972370844
  0
LINE
  8
_0-3_âh__âÇ
  6
CONTINUOUS
 62
    7
 10
2516.1849032176069
 20
2462.8370875741216
 11
2516.1849098139469
 21
2462.8371054818613
  0
LINE
  8
_0-3_âh__âÇ
  6
CONTINUOUS
 62
    7
 10
2516.1849098139469
 20
2462.8371054818613
 11
2516.1849164092091
 21
2462.8371233866692
  0
LINE
  8
_0-3_âh__âÇ
  6
CONTINUOUS
 62
    7
 10
2516.1849164092091
 20
2462.8371233866692
 11
2516.1849230033881
 21
2462.8371412885454
  0
LINE
  8
_0-3_âh__âÇ
  6
CONTINUOUS
 62
    7
 10
2516.1849230033881
 20
2462.8371412885454
 11
2516.1849295964894
 21
2462.8371591874902
  0
LINE
  8
_0-3_âh__âÇ
  6
CONTINUOUS
 62
    7
 10
2516.1849295964894
 20
2462.8371591874902
 11
2516.1849361885215
 21
2462.8371770835029
  0
LINE
  8
_0-3_âh__âÇ
  6
CONTINUOUS
 62
    7
 10
2516.1849361885215
 20
2462.8371770835029
 11
2516.1849427794696
 21
2462.8371949765847
  0
LINE
  8
_0-3_âh__âÇ
  6
CONTINUOUS
 62
    7
 10
2516.1849427794696
 20
2462.8371949765847
 11
2516.1849493693485
 21
2462.8372128667347
  0
LINE
  8
_0-3_âh__âÇ
  6
CONTINUOUS
 62
    7
 10
2516.1849493693485
 20
2462.8372128667347
 11
2516.1849559581428
 21
2462.8372307539526
  0
LINE
  8
_0-3_âh__âÇ
  6
CONTINUOUS
 62
    7
 10
2522.423897116194
 20
2483.6441386676502
 11
2522.423903712534
 21
2483.6441565753898
  0
LINE
  8
_0-3_âh__âÇ
  6
CONTINUOUS
 62
    7
 10
2522.423903712534
 20
2483.6441565753898
 11
2522.4239103077894
 21
2483.6441744801978
  0
LINE
  8
_0-3_âh__âÇ
  6
CONTINUOUS
 62
    7
 10
2522.4239103077894
 20
2483.6441744801978
 11
2522.4239169019752
 21
2483.6441923820739
  0
LINE
  8
_0-3_âh__âÇ
  6
CONTINUOUS
 62
    7
 10
2522.4239169019752
 20
2483.6441923820739
 11
2522.4239234950765
 21
2483.6442102810188
  0
LINE
  8
_0-3_âh__âÇ
  6
CONTINUOUS
 62
    7
 10
2522.4239234950765
 20
2483.6442102810188
 11
2522.4239300871086
 21
2483.6442281770323
  0
LINE
  8
_0-3_âh__âÇ
  6
CONTINUOUS
 62
    7
 10
2522.4239300871086
 20
2483.6442281770323
 11
2522.4239366780566
 21
2483.6442460701137
  0
LINE
  8
_0-3_âh__âÇ
  6
CONTINUOUS
 62
    7
 10
2522.4239366780566
 20
2483.6442460701137
 11
2522.4239432679278
 21
2483.6442639602637
  0
LINE
  8
_0-3_âh__âÇ
  6
CONTINUOUS
 62
    7
 10
2522.4239432679278
 20
2483.6442639602637
 11
2522.4239498567299
 21
2483.644281847482
  0
TEXT
  8
_0-3_âh__âÇ
 62
    7
 10
2512.748943981333
 20
2498.3031918852503
 40
24.432617187500085
 41
1.1764705882352902
 50
0
  1
ï╚û╩ö¢Ä╦ö┬
  0
TEXT
  8
_0-3_âh__âÇ
 62
    7
 10
2469.6325607092699
 20
2466.5531918852503
 40
24.432617187500085
 41
1.1764705882352904
 50
0
  1
üiôýæñé╔î³é»éÚüj
  0
LINE
  8
_0-3_âh__âÇ
  6
CONTINUOUS
 62
    7
 10
2469.6095827680947
 20
2533.0310972370839
 11
2699.6095827680947
 21
2533.0310972370839
  0
LINE
  8
_0-3_âh__âÇ
  6
CONTINUOUS
 62
    7
 10
2699.6095827680947
 20
2533.0310972370839
 11
2699.6095827680947
 21
2453.0310972370844
  0
LINE
  8
_0-3_âh__âÇ
  6
CONTINUOUS
 62
    7
 10
2699.6095827680947
 20
2453.0310972370844
 11
2469.6095827680947
 21
2453.0310972370844
  0
LINE
  8
_0-3_âh__âÇ
  6
CONTINUOUS
 62
    7
 10
2469.6095827680947
 20
2453.0310972370844
 11
2469.6095827680947
 21
2533.0310972370839
  0
LINE
  8
_f-f_
  6
CONTINUOUS
 62
    7
 10
3022.5028554723285
 20
2507.133715277886
 11
3022.9649107944897
 21
2491.1025571003988
  0
LINE
  8
_f-f_
  6
CONTINUOUS
 62
    7
 10
3022.2054510139751
 20
2507.1043225804001
 11
3022.5028554723285
 21
2507.133715277886
  0
LINE
  8
_f-f_
  6
CONTINUOUS
 62
    7
 10
3022.1276480962592
 20
2509.8147034878302
 11
3022.2054510139751
 21
2507.1043225804001
  0
LINE
  8
_f-f_
  6
CONTINUOUS
 62
    7
 10
3022.4247368801412
 20
2509.8440649869785
 11
3022.1276480962592
 21
2509.8147034878302
  0
LINE
  8
_f-f_
  6
CONTINUOUS
 62
    7
 10
3022.0746274507073
 20
2521.9912243711979
 11
3022.4247368801412
 21
2509.8440649869785
  0
ARC
  8
_f-f_
  6
CONTINUOUS
 62
    7
 10
3049.6813358846957
 20
2523.5378195892317
 40
27.64999651587852
 50
173.4478307942326
 51
183.20649773322353
  0
ARC
  8
_f-f_
  6
CONTINUOUS
 62
    7
 10
3049.6813358848271
 20
2523.5378195892431
 40
27.649996516004229
 50
157.87389755871286
 51
173.44783079425738
  0
LINE
  8
_f-f_
  6
CONTINUOUS
 62
    7
 10
3052.2704229628835
 20
2599.2634055498193
 11
3024.0675642767496
 21
2533.9520891912939
  0
ARC
  8
_f-f_
  6
CONTINUOUS
 62
    7
 10
3115.8140220769092
 20
2571.8238859360413
 40
69.214999999995641
 50
118.14425413322184
 51
156.64425413322246
  0
LINE
  8
_f-f_
  6
CONTINUOUS
 62
    7
 10
3147.3879740622469
 20
2667.21032586099
 11
3083.1657856764036
 21
2632.8550983190125
  0
LINE
  8
_f-f_
  6
CONTINUOUS
 62
    7
 10
3337.0393508097591
 20
2657.9456061778919
 11
3267.3345915353457
 21
2679.0647367240272
  0
ARC
  8
_f-f_
  6
CONTINUOUS
 62
    7
 10
3316.9695560223086
 20
2591.7042326852616
 40
69.2150000000034
 50
34.644254133224791
 51
73.144254133219349
  0
LINE
  8
_f-f_
  6
CONTINUOUS
 62
    7
 10
3414.3544650505464
 20
2572.5244255664461
 11
3373.9125656794608
 21
2631.0515308922022
  0
ARC
  8
_f-f_
  6
CONTINUOUS
 62
    7
 10
3391.2748066674212
 20
2557.2977490986823
 40
27.649996516012369
 50
17.840677472184538
 51
33.414610707727633
  0
ARC
  8
_f-f_
  6
CONTINUOUS
 62
    7
 10
3391.2748066674503
 20
2557.2977490986937
 40
27.649996515984895
 50
8.0820105332326939
 51
17.840677472163861
  0
LINE
  8
_f-f_
  6
CONTINUOUS
 62
    7
 10
3420.6846429238758
 20
2549.2043792332374
 11
3418.6501792274544
 21
2561.1850726683492
  0
LINE
  8
_f-f_
  6
CONTINUOUS
 62
    7
 10
3421.4359895684865
 20
2546.5605651389574
 11
3420.9817317077504
 21
2549.2337407323876
  0
LINE
  8
_f-f_
  6
CONTINUOUS
 62
    7
 10
3421.1385851101336
 20
2546.5311724414719
 11
3421.4359895684865
 21
2546.5605651389574
  0
LINE
  8
_f-f_
  6
CONTINUOUS
 62
    7
 10
3423.8235592915116
 20
2530.7197069408367
 11
3421.1385851101336
 21
2546.5311724414719
  0
LINE
  8
_0-3_âh__âÇ
  6
CONTINUOUS
 62
    7
 10
3034.0040063022793
 20
2512.1290648363042
 11
3408.8405130435826
 21
2549.1744276067329
  0
POINT
  8
_0-3_âh__âÇ
 62
    7
 10
3034.0040063022793
 20
2512.1290648363042
  0
LINE
  8
_f-f_
  6
CONTINUOUS
 62
    7
 10
3042.4318985525065
 20
2488.9696529550374
 11
3040.791395089127
 21
2505.5688900609666
  0
LINE
  8
_f-f_
  6
CONTINUOUS
 62
    7
 10
3040.8573232106901
 20
2497.670553384658
 11
3040.0836324029701
 21
2505.498938806365
  0
LINE
  8
_f-f_
  6
CONTINUOUS
 62
    7
 10
3041.7241466406958
 20
2488.8997053222624
 11
3040.8285690675511
 21
2497.9614726937116
  0
LINE
  8
_f-f_
  6
CONTINUOUS
 62
    7
 10
2915.9973285523265
 20
2345.4861687876296
 11
3019.0543535942238
 21
2355.671369028385
  0
ARC
  8
_f-f_
  6
CONTINUOUS
 62
    7
 10
3017.805288723237
 20
2368.3097960249725
 40
12.700000000000271
 50
275.64425413320151
 51
354.69748508758357
  0
LINE
  8
_f-f_
  6
CONTINUOUS
 62
    7
 10
3030.4509408862468
 20
2367.1361345013111
 11
3041.725013660664
 21
2488.6089781549031
  0
ARC
  8
_f-f_
  6
CONTINUOUS
 62
    7
 10
3040.2075354011072
 20
2488.7498175377423
 40
1.5239999999990812
 50
354.69748508757669
 51
5.6442541332505698
  0
ARC
  8
_f-f_
  6
CONTINUOUS
 62
    7
 10
3040.2075354011072
 20
2488.7498175377423
 40
2.2351999999986876
 50
354.69748508760057
 51
5.644254133227264
  0
LINE
  8
_f-f_
  6
CONTINUOUS
 62
    7
 10
3031.1590974073806
 20
2367.0704094559874
 11
3042.4331701817978
 21
2488.5432531095794
  0
ARC
  8
_f-f_
  6
CONTINUOUS
 62
    7
 10
3017.805288723237
 20
2368.3097960249725
 40
13.411200000001358
 50
275.64425413320146
 51
354.69748508759062
  0
LINE
  8
_f-f_
  6
CONTINUOUS
 62
    7
 10
2916.0672761850988
 20
2344.7784168758199
 11
3019.1243012270024
 21
2354.9636171165744
  0
LINE
  8
_f-f_
  6
CONTINUOUS
 62
    7
 10
3043.4172457564091
 20
2510.5069821378247
 11
3043.4888620737952
 21
2509.7823459559286
  0
ARC
  8
_f-f_
  6
CONTINUOUS
 62
    7
 10
3044.810404099695
 20
2505.9660890681157
 40
4.0385999999989455
 50
109.10059782694825
 51
185.64425413319958
  0
ARC
  8
_f-f_
  6
CONTINUOUS
 62
    7
 10
3044.810404099695
 20
2505.9660890681157
 40
4.7497999999992926
 50
107.05615587701213
 51
185.64425413321536
  0
LINE
  8
_0-3_âh__âÇ
  6
CONTINUOUS
 62
    7
 10
2915.9973285523265
 20
2345.4861687876296
 11
2916.0672761850988
 21
2344.7784168758199
  0
LINE
  8
_f-f_
  6
CONTINUOUS
 62
    7
 10
3405.1091096721902
 20
2524.8133037543039
 11
3403.4685841595892
 21
2541.412538681092
  0
LINE
  8
_f-f_
  6
CONTINUOUS
 62
    7
 10
3404.9500266252107
 20
2533.6540983100758
 11
3404.1763473462815
 21
2541.4824848711824
  0
LINE
  8
_f-f_
  6
CONTINUOUS
 62
    7
 10
3405.8168615840077
 20
2524.8832513870784
 11
3404.9212771913631
 21
2533.9450180845524
  0
LINE
  8
_f-f_
  6
CONTINUOUS
 62
    7
 10
3557.1844833440227
 20
2408.8551585357714
 11
3454.1274583021259
 21
2398.6699582950159
  0
ARC
  8
_f-f_
  6
CONTINUOUS
 62
    7
 10
3452.87839343114
 20
2411.3083852916016
 40
12.699999999999678
 50
196.59102317881738
 51
275.64425413320237
  0
LINE
  8
_f-f_
  6
CONTINUOUS
 62
    7
 10
3440.7071284296439
 20
2407.6820499150331
 11
3405.8729210234128
 21
2524.5979789264084
  0
ARC
  8
_f-f_
  6
CONTINUOUS
 62
    7
 10
3407.3334728235973
 20
2525.0331391715968
 40
1.5240000000021869
 50
185.6442541331588
 51
196.59102317878728
  0
ARC
  8
_f-f_
  6
CONTINUOUS
 62
    7
 10
3407.3334728235973
 20
2525.0331391715968
 40
2.235200000003434
 50
185.64425413315431
 51
196.59102317877364
  0
LINE
  8
_f-f_
  6
CONTINUOUS
 62
    7
 10
3440.0255375895613
 20
2407.4789751339458
 11
3405.1913301833301
 21
2524.3949041453216
  0
ARC
  8
_f-f_
  6
CONTINUOUS
 62
    7
 10
3452.87839343114
 20
2411.3083852916016
 40
13.411199999999868
 50
196.59102317881667
 51
275.64425413320242
  0
LINE
  8
_f-f_
  6
CONTINUOUS
 62
    7
 10
3557.2544309768023
 20
2408.1474066239612
 11
3454.1974059348977
 21
2397.9622063832066
  0
LINE
  8
_f-f_
  6
CONTINUOUS
 62
    7
 10
3399.9269045017681
 20
2545.741089280049
 11
3399.9985208191538
 21
2545.016453098151
  0
ARC
  8
_f-f_
  6
CONTINUOUS
 62
    7
 10
3399.4495756495562
 20
2541.0153346094326
 40
4.038599999998647
 50
5.6442541332085181
 51
82.187910439479737
  0
ARC
  8
_f-f_
  6
CONTINUOUS
 62
    7
 10
3399.4495756495562
 20
2541.0153346094326
 40
4.7497999999981291
 50
5.644254133206581
 51
84.23235238939219
  0
LINE
  8
_0-3_âh__âÇ
  6
CONTINUOUS
 62
    7
 10
3557.1844833440227
 20
2408.8551585357714
 11
3557.2544309768023
 21
2408.1474066239612
  0
LINE
  8
_0-3_âh__âÇ
  6
CONTINUOUS
 62
    7
 10
3043.4172457564091
 20
2510.5069821378247
 11
3399.9269045026854
 21
2545.7410892801381
  0
POINT
  8
_0-3_âh__âÇ
 62
    7
 10
3043.4172457564091
 20
2510.5069821378247
  0
LINE
  8
_0-3_âh__âÇ
  6
CONTINUOUS
 62
    7
 10
3245.0333861077202
 20
1877.8930425924323
 11
3564.9328316607757
 21
2006.6266793021657
  0
LINE
  8
_0-3_âh__âÇ
  6
CONTINUOUS
 62
    7
 10
3245.0333861077202
 20
1877.8930425924323
 11
3095.7035571465422
 21
2248.9733602898623
  0
LINE
  8
_0-3_âh__âÇ
  6
CONTINUOUS
 62
    7
 10
3564.93282169243
 20
2006.6267040732159
 11
3415.602992731252
 21
2377.707021770646
  0
POINT
  8
_0-3_âh__âÇ
 62
    7
 10
3095.7035571465422
 20
2248.9733602898623
  0
POINT
  8
_0-3_âh__âÇ
 62
    7
 10
3226.3671574875734
 20
1924.278082304611
  0
LINE
  8
_f-f_
  6
CONTINUOUS
 62
    7
 10
3388.1136269064195
 20
1364.1992173275121
 11
3732.9136269064147
 21
1364.1992173275128
  0
LINE
  8
_f-f_
  6
CONTINUOUS
 62
    7
 10
3732.9136269064147
 20
1364.1992172524274
 11
3732.9136269064147
 21
1589.1992172524283
  0
LINE
  8
_f-f_
  6
CONTINUOUS
 62
    7
 10
3388.1136269061285
 20
1509.2400973142289
 11
3357.0589695273484
 21
1599.5941284623736
  0
LINE
  8
_f-f_
  6
CONTINUOUS
 62
    7
 10
3388.1136269064195
 20
1364.1992173275121
 11
3388.1136269064195
 21
1509.2400973143729
  0
LINE
  8
_f-f_
  6
CONTINUOUS
 62
    7
 10
3732.9136269064147
 20
1589.1992172524283
 11
3676.9302133482529
 21
1728.316416262403
  0
LINE
  8
_f-f_
  6
CONTINUOUS
 62
    7
 10
3357.4124169181923
 20
1599.7363625078256
 11
3357.0589695273484
 21
1599.5941284623736
  0
LINE
  8
_f-f_
  6
CONTINUOUS
 62
    7
 10
3732.9136269064147
 20
1585.7189660396102
 11
3388.4004504849913
 21
1505.8263604894489
  0
LINE
  8
_f-f_
  6
CONTINUOUS
 62
    7
 10
3386.6547663592974
 20
1513.173711856143
 11
3731.9070067551183
 21
1592.4752748195674
  0
LINE
  8
_f-f_
  6
CONTINUOUS
 62
    7
 10
3388.1136269061285
 20
1509.2400973142289
 11
3732.9136269064147
 21
1589.1992172524283
  0
LINE
  8
_0-3_âh__âÇ
  6
CONTINUOUS
 62
    7
 10
3375.6969964170967
 20
1553.1977398361312
 11
3695.5964419701522
 21
1681.9313765458642
  0
LINE
  8
_0-3_âh__âÇ
  6
CONTINUOUS
 62
    7
 10
3375.6969964170967
 20
1553.1977398361312
 11
3226.3671674559191
 21
1924.2780575335607
  0
LINE
  8
_0-3_âh__âÇ
  6
CONTINUOUS
 62
    7
 10
3695.5964320018065
 20
1681.9314013169148
 11
3546.266603040629
 21
2053.0117190143442
  0
POINT
  8
_0-3_âh__âÇ
 62
    7
 10
3226.3671674559191
 20
1924.2780575335607
  0
POINT
  8
_0-3_âh__âÇ
 62
    7
 10
3357.0307677969504
 20
1599.5827795483096
  0
LINE
  8
_0-3_âh__âÇ
  6
CONTINUOUS
 62
    7
 10
2975.8702939022373
 20
2350.6887923228387
 11
2981.1265208442314
 21
2296.3479807492845
  0
LINE
  8
_0-3_âh__âÇ
  6
CONTINUOUS
 62
    7
 10
2784.7667844684952
 20
2292.0172248649228
 11
2950.8428637165384
 21
2308.08127574832
  0
LINE
  8
_0-3_âh__âÇ
  6
CONTINUOUS
 62
    7
 10
2969.0384627594945
 20
2295.1787384295362
 11
2981.1265208442314
 21
2296.3479807492845
  0
LINE
  8
_0-3_âh__âÇ
  6
CONTINUOUS
 62
    7
 10
2927.5088436874034
 20
2305.8242445927199
 11
2967.3230241060487
 21
2309.6753532112657
  0
LINE
  8
_0-3_âh__âÇ
  6
CONTINUOUS
 62
    7
 10
2967.3230241060487
 20
2309.6753532112657
 11
2971.174132724595
 21
2269.8611727926241
  0
LINE
  8
_0-3_âh__âÇ
  6
CONTINUOUS
 62
    7
 10
2971.174132724595
 20
2269.8611727926241
 11
2931.3599523059497
 21
2266.0100641740787
  0
LINE
  8
_0-3_âh__âÇ
  6
CONTINUOUS
 62
    7
 10
2931.3599523059497
 20
2266.0100641740787
 11
2927.5088436874034
 21
2305.8242445927199
  0
LINE
  8
_0-3_âh__âÇ
  6
CONTINUOUS
 62
    7
 10
2796.8413480174099
 20
2333.3718487310034
 11
2975.8702939022373
 21
2350.6887923228387
  0
LINE
  8
_0-3_âh__âÇ
  6
CONTINUOUS
 62
    7
 10
3563.4633384757076
 20
2422.9696030463874
 11
3694.8887047971475
 21
2435.6819923412077
  0
LINE
  8
_0-3_âh__âÇ
  6
CONTINUOUS
 62
    7
 10
3563.4633384757076
 20
2422.9696030463874
 11
3557.2544309768023
 21
2408.1474066239612
  0
LINE
  8
_0-3_âh__âÇ
  6
CONTINUOUS
 62
    7
 10
3519.463517796798
 20
2458.2049482590683
 11
3706.7543367397343
 21
2476.321038542013
  0
ARC
  8
_0-3_âh__âÇ
  6
CONTINUOUS
 62
    7
 10
3521.3890721060711
 20
2438.2978580497479
 40
19.999999999999243
 50
95.524864643339541
 51
163.72345515698836
  0
LINE
  8
_0-3_âh__âÇ
  6
CONTINUOUS
 62
    7
 10
3501.2381852092335
 20
2440.6411328886829
 11
3503.6301610529013
 21
2402.9604886491193
  0
LINE
  8
_0-3_âh__âÇ
  6
CONTINUOUS
 62
    7
 10
3488.6217464278202
 20
2401.5087688270455
 11
3548.3430170557881
 21
2407.2854317548622
  0
LINE
  8
_0-3_âh__âÇ
  6
CONTINUOUS
 62
    7
 10
3548.3430170557881
 20
2407.2854317548622
 11
3550.7499599423722
 21
2382.4015689932107
  0
LINE
  8
_0-3_âh__âÇ
  6
CONTINUOUS
 62
    7
 10
3550.7499599423722
 20
2382.4015689932107
 11
3491.0286893144116
 21
2376.6249060653954
  0
LINE
  8
_0-3_âh__âÇ
  6
CONTINUOUS
 62
    7
 10
3491.0286893144116
 20
2376.6249060653954
 11
3488.6217464278202
 21
2401.5087688270455
  0
LINE
  8
_0-3_âh__âÇ
  6
CONTINUOUS
 62
    7
 10
3503.4706206952364
 20
2377.8283775086911
 11
3538.3080285615547
 21
2381.1980975499155
  0
LINE
  8
_0-3_âh__âÇ
  6
CONTINUOUS
 62
    7
 10
3538.3080285615547
 20
2381.1980975499155
 11
3541.677748602775
 21
2346.3606896836041
  0
LINE
  8
_0-3_âh__âÇ
  6
CONTINUOUS
 62
    7
 10
3541.677748602775
 20
2346.3606896836041
 11
3506.8403407364644
 21
2342.9909696423779
  0
LINE
  8
_0-3_âh__âÇ
  6
CONTINUOUS
 62
    7
 10
3506.8403407364644
 20
2342.9909696423779
 11
3503.4706206952364
 21
2377.8283775086911
  0
LINE
  8
_0-3_âh__âÇ
  6
CONTINUOUS
 62
    7
 10
3265.1063122009691
 20
2541.6143116128733
 11
3334.7449770687854
 21
2641.2391178577209
  0
LINE
  8
_0-3_âh__âÇ
  6
CONTINUOUS
 62
    7
 10
3390.6417971521187
 20
2552.4236602556216
 11
3265.1063122009691
 21
2541.6143116128733
  0
LINE
  8
_0-3_âh__âÇ
  6
CONTINUOUS
 62
    7
 10
3389.1872992172102
 20
2561.486339273381
 11
3387.9851513137946
 21
2567.4867759443359
  0
LINE
  8
_0-3_âh__âÇ
  6
CONTINUOUS
 62
    7
 10
3390.6417971521187
 20
2552.4236602556216
 11
3390.2153004260945
 21
2555.4536273344279
  0
LINE
  8
_0-3_âh__âÇ
  6
CONTINUOUS
 62
    7
 10
3375.1407392993387
 20
2598.3348964079009
 11
3365.8662823452
 21
2612.2734785211946
  0
LINE
  8
_0-3_âh__âÇ
  6
CONTINUOUS
 62
    7
 10
3390.2153004260945
 20
2555.4536273344279
 11
3389.1872992172102
 21
2561.486339273381
  0
LINE
  8
_0-3_âh__âÇ
  6
CONTINUOUS
 62
    7
 10
3342.3735441327408
 20
2636.0363988253412
 11
3334.7449770687854
 21
2641.2391178577209
  0
LINE
  8
_0-3_âh__âÇ
  6
CONTINUOUS
 62
    7
 10
3354.8836306319026
 20
2624.9099726737563
 11
3342.3735441327408
 21
2636.0363988253412
  0
LINE
  8
_0-3_âh__âÇ
  6
CONTINUOUS
 62
    7
 10
3365.8662823452
 20
2612.2734785211946
 11
3354.8836306319026
 21
2624.9099726737563
  0
LINE
  8
_0-3_âh__âÇ
  6
CONTINUOUS
 62
    7
 10
3382.5543561555719
 20
2583.3236370259519
 11
3375.1407392993387
 21
2598.3348964079009
  0
LINE
  8
_0-3_âh__âÇ
  6
CONTINUOUS
 62
    7
 10
3387.9851145507746
 20
2567.4867659215897
 11
3382.5543561555719
 21
2583.3236370259519
  0
LINE
  8
_f-f_
  6
CONTINUOUS
 62
    7
 10
3393.2129684328652
 20
2545.4972404454566
 11
3408.1366176216288
 21
2396.2607485578574
  0
LINE
  8
_f-f_
  6
CONTINUOUS
 62
    7
 10
3050.0938938627842
 20
2511.1853598231737
 11
3069.903972064556
 21
2313.0845778062985
  0
LINE
  8
_f-f_
  6
CONTINUOUS
 62
    7
 10
3408.1366176216288
 20
2396.2607485578574
 11
3434.2692213513988
 21
2331.3219820584668
  0
LINE
  8
_f-f_
  6
CONTINUOUS
 62
    7
 10
3069.9039747188908
 20
2313.0845784590401
 11
3114.3697957350341
 21
2202.5882958066313
  0
LINE
  8
_f-f_
  6
CONTINUOUS
 62
    7
 10
3434.2692213513988
 20
2331.3219820584668
 11
3114.3697857666889
 21
2202.5883205776831
  0
LINE
  8
_f-f_
  6
CONTINUOUS
 62
    7
 10
3332.4142166982751
 20
2364.3673511604338
 11
3332.4669194599887
 21
2364.3712651595633
  0
LINE
  8
_f-f_
  6
CONTINUOUS
 62
    7
 10
3071.1822880819345
 20
2309.9080066235742
 11
3409.5385924347324
 21
2393.1143026968939
  0
LINE
  8
_f-f_
  6
CONTINUOUS
 62
    7
 10
3407.8048094412552
 20
2399.6513090737649
 11
3069.5651344365292
 21
2316.4729540865792
  0
LINE
  8
_f-f_
  6
CONTINUOUS
 62
    7
 10
3408.1350041650112
 20
2396.2606899898183
 11
3069.903972064556
 21
2313.0845778062985
  0
LINE
  8
_0-3_âh__âÇ
  6
CONTINUOUS
 62
    7
 10
3036.7443412351531
 20
2509.8504045604095
 11
3039.8586910261911
 21
2478.7069066500299
  0
LINE
  8
_0-3_âh__âÇ
  6
CONTINUOUS
 62
    7
 10
3039.8586910261911
 20
2478.7069066500299
 11
3024.3823154612874
 21
2477.1592690935395
  0
LINE
  8
_0-3_âh__âÇ
  6
CONTINUOUS
 62
    7
 10
3024.3823154612874
 20
2477.1592690935395
 11
3022.9892633949894
 21
2491.0897897564787
  0
LINE
  8
_0-3_âh__âÇ
  6
CONTINUOUS
 62
    7
 10
3022.9892633949894
 20
2491.0897897564787
 11
3030.4679772009586
 21
2491.837661137075
  0
LINE
  8
_0-3_âh__âÇ
  6
CONTINUOUS
 62
    7
 10
3030.4679772009586
 20
2491.837661137075
 11
3031.6082873099117
 21
2480.4345600475826
  0
LINE
  8
_0-3_âh__âÇ
  6
CONTINUOUS
 62
    7
 10
3031.6082873099117
 20
2480.4345600475826
 11
3037.1183560933173
 21
2480.9855669259236
  0
LINE
  8
_0-3_âh__âÇ
  6
CONTINUOUS
 62
    7
 10
3037.1183560933173
 20
2480.9855669259236
 11
3034.0040063022793
 21
2512.1290648363042
  0
LINE
  8
_0-3_âh__âÇ
  6
CONTINUOUS
 62
    7
 10
3034.0040063022793
 20
2512.1290648363042
 11
3053.0762206450418
 21
2514.0362862705797
  0
LINE
  8
_0-3_âh__âÇ
  6
CONTINUOUS
 62
    7
 10
3053.0762206450418
 20
2514.0362862705797
 11
3055.9244271375028
 21
2485.5542213459639
  0
LINE
  8
_0-3_âh__âÇ
  6
CONTINUOUS
 62
    7
 10
3055.9244271375028
 20
2485.5542213459639
 11
3052.6893583979072
 21
2485.2307144720044
  0
LINE
  8
_0-3_âh__âÇ
  6
CONTINUOUS
 62
    7
 10
3052.6893583979072
 20
2485.2307144720044
 11
3050.0938938627914
 21
2511.1853598231728
  0
LINE
  8
_0-3_âh__âÇ
  6
CONTINUOUS
 62
    7
 10
3050.0938938627914
 20
2511.1853598231728
 11
3036.7443412351531
 21
2509.8504045604095
  0
LINE
  8
_0-3_âh__âÇ
  6
CONTINUOUS
 62
    7
 10
3406.5625184036003
 20
2546.8322222772563
 11
3409.6768681946451
 21
2515.6887243668775
  0
LINE
  8
_0-3_âh__âÇ
  6
CONTINUOUS
 62
    7
 10
3409.6768681946451
 20
2515.6887243668775
 11
3425.1532437595415
 21
2517.2363619233665
  0
LINE
  8
_0-3_âh__âÇ
  6
CONTINUOUS
 62
    7
 10
3425.1532437595415
 20
2517.2363619233665
 11
3423.7601916932508
 21
2531.1668825863076
  0
LINE
  8
_0-3_âh__âÇ
  6
CONTINUOUS
 62
    7
 10
3423.7601916932508
 20
2531.1668825863076
 11
3416.2814778872821
 21
2530.4190112057095
  0
LINE
  8
_0-3_âh__âÇ
  6
CONTINUOUS
 62
    7
 10
3416.2814778872821
 20
2530.4190112057095
 11
3417.4217879962343
 21
2519.0159101162176
  0
LINE
  8
_0-3_âh__âÇ
  6
CONTINUOUS
 62
    7
 10
3417.4217879962343
 20
2519.0159101162176
 11
3411.9117192128215
 21
2518.4649032378757
  0
LINE
  8
_0-3_âh__âÇ
  6
CONTINUOUS
 62
    7
 10
3411.9117192128215
 20
2518.4649032378757
 11
3408.797369421784
 21
2549.6084011482558
  0
LINE
  8
_0-3_âh__âÇ
  6
CONTINUOUS
 62
    7
 10
3408.797369421784
 20
2549.6084011482558
 11
3389.7251550790206
 21
2547.7011797139794
  0
LINE
  8
_0-3_âh__âÇ
  6
CONTINUOUS
 62
    7
 10
3389.7251550790206
 20
2547.7011797139794
 11
3392.5733615714817
 21
2519.2191147893636
  0
LINE
  8
_0-3_âh__âÇ
  6
CONTINUOUS
 62
    7
 10
3392.5733615714817
 20
2519.2191147893636
 11
3395.808430311085
 21
2519.5426216633241
  0
LINE
  8
_0-3_âh__âÇ
  6
CONTINUOUS
 62
    7
 10
3395.808430311085
 20
2519.5426216633241
 11
3393.2129657759615
 21
2545.4972670144925
  0
LINE
  8
_0-3_âh__âÇ
  6
CONTINUOUS
 62
    7
 10
3393.2129657759615
 20
2545.4972670144925
 11
3406.5625184036003
 21
2546.8322222772563
  0
LINE
  8
_0-3_âh__âÇ
  6
CONTINUOUS
 62
    7
 10
3053.0762206450418
 20
2514.0362862705797
 11
3389.7251550790206
 21
2547.7011797139794
  0
POINT
  8
_0-3_âh__âÇ
 62
    7
 10
3034.0040063022793
 20
2512.1290648363042
  0
POINT
  8
_0-3_âh__âÇ
 62
    7
 10
3043.4191175489723
 20
2510.5178821917907
  0
LINE
  8
_0-3_âh__âÇ
  6
CONTINUOUS
 62
    7
 10
3167.2886194667121
 20
2071.0865452245016
 11
3184.0387175359178
 21
2083.2562038200435
  0
LINE
  8
_0-3_âh__âÇ
  6
CONTINUOUS
 62
    7
 10
3184.0387175359178
 20
2083.2562038200435
 11
3187.8794592082959
 21
2073.2507296890199
  0
LINE
  8
_0-3_âh__âÇ
  6
CONTINUOUS
 62
    7
 10
3187.8794592082959
 20
2073.2507296890199
 11
3167.2886194667121
 21
2071.0865452245016
  0
LINE
  8
_0-3_âh__âÇ
  6
CONTINUOUS
 62
    7
 10
3487.1880550514361
 20
2199.8202067052557
 11
3470.4379569822231
 21
2187.6505481097133
  0
LINE
  8
_0-3_âh__âÇ
  6
CONTINUOUS
 62
    7
 10
3470.4379569822231
 20
2187.6505481097133
 11
3466.5972153098446
 21
2197.6560222407388
  0
LINE
  8
_0-3_âh__âÇ
  6
CONTINUOUS
 62
    7
 10
3466.5972153098446
 20
2197.6560222407388
 11
3487.1880550514361
 21
2199.8202067052557
  0
LINE
  8
_0-3_âh__âÇ
  6
CONTINUOUS
 62
    7
 10
3178.5370739949831
 20
2526.5823716055747
 11
3190.7067325905268
 21
2509.8322735363636
  0
LINE
  8
_0-3_âh__âÇ
  6
CONTINUOUS
 62
    7
 10
3190.7067325905268
 20
2509.8322735363636
 11
3180.7012584595032
 21
2505.991531863986
  0
LINE
  8
_0-3_âh__âÇ
  6
CONTINUOUS
 62
    7
 10
3180.7012584595032
 20
2505.991531863986
 11
3178.5370739949831
 21
2526.5823716055747
  0
LINE
  8
_0-3_âh__âÇ
  6
CONTINUOUS
 62
    7
 10
3280.9488327726831
 20
2269.4476692405274
 11
3268.7791741771398
 21
2286.1977673097385
  0
LINE
  8
_0-3_âh__âÇ
  6
CONTINUOUS
 62
    7
 10
3268.7791741771398
 20
2286.1977673097385
 11
3278.784648308163
 21
2290.0385089821161
  0
LINE
  8
_0-3_âh__âÇ
  6
CONTINUOUS
 62
    7
 10
3278.784648308163
 20
2290.0385089821161
 11
3280.9488327726831
 21
2269.4476692405274
  0
LINE
  8
_0-3_âh__âÇ
  6
CONTINUOUS
 62
    7
 10
3434.6095827680947
 20
2006.8248028394635
 11
3446.779241363638
 21
1990.0747047702521
  0
LINE
  8
_0-3_âh__âÇ
  6
CONTINUOUS
 62
    7
 10
3446.779241363638
 20
1990.0747047702521
 11
3436.7737672326148
 21
1986.2339630978747
  0
LINE
  8
_0-3_âh__âÇ
  6
CONTINUOUS
 62
    7
 10
3436.7737672326148
 20
1986.2339630978747
 11
3434.6095827680947
 21
2006.8248028394635
  0
LINE
  8
_0-3_âh__âÇ
  6
CONTINUOUS
 62
    7
 10
3583.9394117294396
 20
1635.7444851421019
 11
3571.7697531338968
 21
1652.4945832113133
  0
LINE
  8
_0-3_âh__âÇ
  6
CONTINUOUS
 62
    7
 10
3571.7697531338968
 20
1652.4945832113133
 11
3581.7752272649273
 21
1656.3353248836906
  0
LINE
  8
_0-3_âh__âÇ
  6
CONTINUOUS
 62
    7
 10
3581.7752272649273
 20
1656.3353248836906
 11
3583.9394117294396
 21
1635.7444851421019
  0
LINE
  8
_0-3_âh__âÇ
  6
CONTINUOUS
 62
    7
 10
3514.7115464586277
 20
1663.0365315273016
 11
3526.8812050541715
 21
1646.2864334580904
  0
LINE
  8
_0-3_âh__âÇ
  6
CONTINUOUS
 62
    7
 10
3526.8812050541715
 20
1646.2864334580904
 11
3516.8757309231478
 21
1642.4456917857128
  0
LINE
  8
_0-3_âh__âÇ
  6
CONTINUOUS
 62
    7
 10
3516.8757309231478
 20
1642.4456917857128
 11
3514.7115464586277
 21
1663.0365315273016
  0
LINE
  8
_0-3_âh__âÇ
  6
CONTINUOUS
 62
    7
 10
3096.3697757983432
 20
2195.3448005065311
 11
3045.3462321149459
 21
2174.8119490243739
  0
LINE
  8
_0-3_âh__âÇ
  6
CONTINUOUS
 62
    7
 10
3077.7035471781965
 20
2241.7298402187093
 11
3026.6800034947992
 21
2221.1969887365517
  0
LINE
  8
_0-3_âh__âÇ
  6
CONTINUOUS
 62
    7
 10
3035.7137733734962
 20
2224.8323508038029
 11
3044.845734242092
 21
2212.2632849658207
  0
LINE
  8
_0-3_âh__âÇ
  6
CONTINUOUS
 62
    7
 10
3044.845734242092
 20
2212.2632849658207
 11
3037.3377505530771
 21
2209.3812400519751
  0
LINE
  8
_0-3_âh__âÇ
  6
CONTINUOUS
 62
    7
 10
3037.3377505530771
 20
2209.3812400519751
 11
3035.7137733734962
 21
2224.8323508038029
  0
LINE
  8
_0-3_âh__âÇ
  6
CONTINUOUS
 62
    7
 10
3054.3800019936207
 20
2178.447311091616
 11
3045.2480411250326
 21
2191.0163769295973
  0
LINE
  8
_0-3_âh__âÇ
  6
CONTINUOUS
 62
    7
 10
3045.2480411250326
 20
2191.0163769295973
 11
3052.7560248140476
 21
2193.898421843443
  0
LINE
  8
_0-3_âh__âÇ
  6
CONTINUOUS
 62
    7
 10
3052.7560248140476
 20
2193.898421843443
 11
3054.3800019936207
 21
2178.447311091616
  0
LINE
  8
_0-3_âh__âÇ
  6
CONTINUOUS
 62
    7
 10
3233.3800019936502
 20
1873.73803544881
 11
3182.3564583102457
 21
1853.2051839666524
  0
LINE
  8
_0-3_âh__âÇ
  6
CONTINUOUS
 62
    7
 10
3214.7137733734962
 20
1920.1230751609887
 11
3163.6902296900989
 21
1899.5902236788311
  0
LINE
  8
_0-3_âh__âÇ
  6
CONTINUOUS
 62
    7
 10
3172.7239995688033
 20
1903.2255857460818
 11
3181.8559604373918
 21
1890.6565199081001
  0
LINE
  8
_0-3_âh__âÇ
  6
CONTINUOUS
 62
    7
 10
3181.8559604373918
 20
1890.6565199081001
 11
3174.3479767483768
 21
1887.7744749942544
  0
LINE
  8
_0-3_âh__âÇ
  6
CONTINUOUS
 62
    7
 10
3174.3479767483768
 20
1887.7744749942544
 11
3172.7239995688033
 21
1903.2255857460818
  0
LINE
  8
_0-3_âh__âÇ
  6
CONTINUOUS
 62
    7
 10
3191.3902281889277
 20
1856.8405460338952
 11
3182.2582673203328
 21
1869.4096118718767
  0
LINE
  8
_0-3_âh__âÇ
  6
CONTINUOUS
 62
    7
 10
3182.2582673203328
 20
1869.4096118718767
 11
3189.7662510093469
 21
1872.2916567857226
  0
LINE
  8
_0-3_âh__âÇ
  6
CONTINUOUS
 62
    7
 10
3189.7662510093469
 20
1872.2916567857226
 11
3191.3902281889277
 21
1856.8405460338952
  0
LINE
  8
_0-3_âh__âÇ
  6
CONTINUOUS
 62
    7
 10
3365.3800019936498
 20
1549.4051862253752
 11
3314.3564583102452
 21
1528.8723347432176
  0
LINE
  8
_0-3_âh__âÇ
  6
CONTINUOUS
 62
    7
 10
3346.7137733734967
 20
1595.7902259375537
 11
3295.6902296900989
 21
1575.2573744553961
  0
LINE
  8
_0-3_âh__âÇ
  6
CONTINUOUS
 62
    7
 10
3304.7239995688033
 20
1578.8927365226471
 11
3313.8559604373913
 21
1566.3236706846651
  0
LINE
  8
_0-3_âh__âÇ
  6
CONTINUOUS
 62
    7
 10
3313.8559604373913
 20
1566.3236706846651
 11
3306.3479767483773
 21
1563.4416257708187
  0
LINE
  8
_0-3_âh__âÇ
  6
CONTINUOUS
 62
    7
 10
3306.3479767483773
 20
1563.4416257708187
 11
3304.7239995688033
 21
1578.8927365226471
  0
LINE
  8
_0-3_âh__âÇ
  6
CONTINUOUS
 62
    7
 10
3323.3902281889277
 20
1532.507696810459
 11
3314.2582673203328
 21
1545.076762648441
  0
LINE
  8
_0-3_âh__âÇ
  6
CONTINUOUS
 62
    7
 10
3314.2582673203328
 20
1545.076762648441
 11
3321.7662510093469
 21
1547.9588075622873
  0
LINE
  8
_0-3_âh__âÇ
  6
CONTINUOUS
 62
    7
 10
3321.7662510093469
 20
1547.9588075622873
 11
3323.3902281889277
 21
1532.507696810459
  0
LINE
  8
_0-3_âh__âÇ
  6
CONTINUOUS
 62
    7
 10
3406.2282485904184
 20
1487.8436720609213
 11
3734.3131351179363
 21
1563.2020368798785
  0
LINE
  8
_0-3_âh__âÇ
  6
CONTINUOUS
 62
    7
 10
3734.3131351179363
 20
1563.2020368798785
 11
3741.4767279055491
 21
1532.0141716375585
  0
LINE
  8
_0-3_âh__âÇ
  6
CONTINUOUS
 62
    7
 10
3741.4767279055491
 20
1532.0141716375585
 11
3413.3918413780302
 21
1456.6558068186009
  0
LINE
  8
_0-3_âh__âÇ
  6
CONTINUOUS
 62
    7
 10
3413.3918413780302
 20
1456.6558068186009
 11
3406.2282485904184
 21
1487.8436720609213
  0
LINE
  8
_0-3_âh__âÇ
  6
CONTINUOUS
 62
    7
 10
3084.4405958657194
 20
2304.3998331094585
 11
3411.3298769638754
 21
2384.7862363073355
  0
LINE
  8
_0-3_âh__âÇ
  6
CONTINUOUS
 62
    7
 10
3411.3298769638754
 20
2384.7862363073355
 11
3418.9714368564569
 21
2353.7120257395977
  0
LINE
  8
_0-3_âh__âÇ
  6
CONTINUOUS
 62
    7
 10
3418.9714368564569
 20
2353.7120257395977
 11
3092.0821557582935
 21
2273.3256225417217
  0
LINE
  8
_0-3_âh__âÇ
  6
CONTINUOUS
 62
    7
 10
3092.0821557582935
 20
2273.3256225417217
 11
3084.4405958657194
 21
2304.3998331094585
  0
LINE
  8
_0-3_âh__âÇ
  6
CONTINUOUS
 62
    7
 10
3083.1657856763964
 20
2632.8550983190125
 11
3051.1382233988807
 21
2625.4609529498421
  0
LINE
  8
_0-3_âh__âÇ
  6
CONTINUOUS
 62
    7
 10
3051.1382233988807
 20
2625.4609529498421
 11
3051.7320304381974
 21
2642.4653617287922
  0
LINE
  8
_0-3_âh__âÇ
  6
CONTINUOUS
 62
    7
 10
3051.7320304381974
 20
2642.4653617287922
 11
3083.1657856763964
 21
2632.8550983190125
  0
LINE
  8
_0-3_âh__âÇ
  6
CONTINUOUS
 62
    7
 10
3283.6095827680947
 20
2591.4267147352975
 11
3253.5813264664871
 21
2578.0572736600234
  0
LINE
  8
_0-3_âh__âÇ
  6
CONTINUOUS
 62
    7
 10
3253.5813264664871
 20
2578.0572736600234
 11
3250.9196294419125
 21
2594.8625672805156
  0
LINE
  8
_0-3_âh__âÇ
  6
CONTINUOUS
 62
    7
 10
3250.9196294419125
 20
2594.8625672805156
 11
3283.6095827680947
 21
2591.4267147352975
  0
LINE
  8
_0-3_âh__âÇ
  6
CONTINUOUS
 62
    7
 10
3035.0817655548781
 20
2417.0310972370839
 11
3006.6154943135443
 21
2400.5960878730739
  0
LINE
  8
_0-3_âh__âÇ
  6
CONTINUOUS
 62
    7
 10
3006.6154943135443
 20
2400.5960878730739
 11
3002.2117468268589
 21
2417.0310972370839
  0
LINE
  8
_0-3_âh__âÇ
  6
CONTINUOUS
 62
    7
 10
3002.2117468268589
 20
2417.0310972370839
 11
3035.0817655548781
 21
2417.0310972370839
  0
LINE
  8
_0-3_âh__âÇ
  6
CONTINUOUS
 62
    7
 10
3117.6095827680952
 20
2391.0310972370844
 11
3096.0449101984887
 21
2366.223779200945
  0
LINE
  8
_0-3_âh__âÇ
  6
CONTINUOUS
 62
    7
 10
3096.0449101984887
 20
2366.223779200945
 11
3086.530369480457
 21
2380.3296659028301
  0
LINE
  8
_0-3_âh__âÇ
  6
CONTINUOUS
 62
    7
 10
3086.530369480457
 20
2380.3296659028301
 11
3117.6095827680952
 21
2391.0310972370844
  0
LINE
  8
_0-3_âh__âÇ
  6
CONTINUOUS
 62
    7
 10
3182.6028607993248
 20
2033.0310972370842
 11
3157.7955427631859
 21
2011.4664246674795
  0
LINE
  8
_0-3_âh__âÇ
  6
CONTINUOUS
 62
    7
 10
3157.7955427631859
 20
2011.4664246674795
 11
3150.3367568954673
 21
2026.7592019855826
  0
LINE
  8
_0-3_âh__âÇ
  6
CONTINUOUS
 62
    7
 10
3150.3367568954673
 20
2026.7592019855826
 11
3182.6028607993248
 21
2033.0310972370842
  0
LINE
  8
_0-3_âh__âÇ
  6
CONTINUOUS
 62
    7
 10
3319.6983005883048
 20
1692.3528837437175
 11
3286.8733290785713
 21
1690.6325998818636
  0
LINE
  8
_0-3_âh__âÇ
  6
CONTINUOUS
 62
    7
 10
3286.8733290785713
 20
1690.6325998818636
 11
3290.4108994514427
 21
1707.2755599724997
  0
LINE
  8
_0-3_âh__âÇ
  6
CONTINUOUS
 62
    7
 10
3290.4108994514427
 20
1707.2755599724997
 11
3319.6983005883048
 21
1692.3528837437175
  0
LINE
  8
_0-3_âh__âÇ
  6
CONTINUOUS
 62
    7
 10
3419.3918413780307
 20
1383.0310972370842
 11
3386.7018880518481
 21
1379.595244691865
  0
LINE
  8
_0-3_âh__âÇ
  6
CONTINUOUS
 62
    7
 10
3386.7018880518481
 20
1379.595244691865
 11
3389.3635850764222
 21
1396.4005383123576
  0
LINE
  8
_0-3_âh__âÇ
  6
CONTINUOUS
 62
    7
 10
3389.3635850764222
 20
1396.4005383123576
 11
3419.3918413780307
 21
1383.0310972370842
  0
TEXT
  8
_0-3_âh__âÇ
 62
    7
 10
2901.7615163762712
 20
1703.4024347875552
 40
23.50838539523302
 41
1.1764705882352939
 50
0
  1
â`âàü[âuÅdé╦Éíû@
  0
LINE
  8
_0-3_âh__âÇ
  6
CONTINUOUS
 62
    7
 10
3030.9433441796027
 20
2149.416161720314
 11
3030.9433441796027
 21
1734.4161617203142
  0
LINE
  8
_0-3_âh__âÇ
  6
CONTINUOUS
 62
    7
 10
3134.3628884576865
 20
1853.7552881122108
 11
3030.9433441796027
 21
1734.4161617203142
  0
TEXT
  8
_0-3_âh__âÇ
 62
    7
 10
2399.1518631112449
 20
1478.299058041963
 40
24.432617187500007
 41
1.1764705882352942
 50
0
  1
â{âgâÇâAâôâOâïâ`âàü[âu
  0
LINE
  8
_0-3_âh__âÇ
  6
CONTINUOUS
 62
    7
 10
2370.7194051300139
 20
1510.0310972370839
 11
2741.6095827680947
 21
1510.0310972370839
  0
LINE
  8
_0-3_âh__âÇ
  6
CONTINUOUS
 62
    7
 10
2741.6095827680947
 20
1510.0310972370839
 11
2741.6095827680947
 21
1470.0310972370839
  0
LINE
  8
_0-3_âh__âÇ
  6
CONTINUOUS
 62
    7
 10
2741.6095827680947
 20
1470.0310972370839
 11
2370.7194051300139
 21
1470.0310972370839
  0
LINE
  8
_0-3_âh__âÇ
  6
CONTINUOUS
 62
    7
 10
2370.7194051300139
 20
1470.0310972370839
 11
2370.7194051300139
 21
1510.0310972370839
  0
TEXT
  8
_0-3_âh__âÇ
 62
    7
 10
2542.6187206596701
 20
1794.5998316553494
 40
24.432617187499943
 41
1.176470588235297
 50
0
  1
ëäÆÀâ`âàü[âu
  0
LINE
  8
_0-3_âh__âÇ
  6
CONTINUOUS
 62
    7
 10
2511.3825553213355
 20
1829.0310972370842
 11
2739.6095827680947
 21
1829.0310972370842
  0
LINE
  8
_0-3_âh__âÇ
  6
CONTINUOUS
 62
    7
 10
2739.6095827680947
 20
1829.0310972370842
 11
2739.6095827680947
 21
1785.0310972370839
  0
LINE
  8
_0-3_âh__âÇ
  6
CONTINUOUS
 62
    7
 10
2739.6095827680947
 20
1785.0310972370839
 11
2511.3825553213355
 21
1785.0310972370839
  0
LINE
  8
_0-3_âh__âÇ
  6
CONTINUOUS
 62
    7
 10
2511.3825553213355
 20
1785.0310972370839
 11
2511.3825553213355
 21
1829.0310972370842
  0
TEXT
  8
_0-3_âh__âÇ
 62
    7
 10
2392.0009980385403
 20
2115.5971265131575
 40
24.432617187500085
 41
1.1764705882352906
 50
0
  1
âgâbâvâAâôâOâïâ`âàü[âu
  0
LINE
  8
_0-3_âh__âÇ
  6
CONTINUOUS
 62
    7
 10
2361.7194051300139
 20
2148.0310972370844
 11
2732.6095827680952
 21
2148.0310972370844
  0
LINE
  8
_0-3_âh__âÇ
  6
CONTINUOUS
 62
    7
 10
2732.6095827680952
 20
2148.0310972370844
 11
2732.6095827680952
 21
2108.0310972370844
  0
LINE
  8
_0-3_âh__âÇ
  6
CONTINUOUS
 62
    7
 10
2732.6095827680952
 20
2108.0310972370844
 11
2361.7194051300139
 21
2108.0310972370844
  0
LINE
  8
_0-3_âh__âÇ
  6
CONTINUOUS
 62
    7
 10
2361.7194051300139
 20
2108.0310972370844
 11
2361.7194051300139
 21
2148.0310972370844
  0
LINE
  8
_0-3_âh__âÇ
  6
CONTINUOUS
 62
    7
 10
2368.0463154007848
 20
2663.0310972370844
 11
2685.6095827680952
 21
2663.0310972370844
  0
LINE
  8
_0-3_âh__âÇ
  6
CONTINUOUS
 62
    7
 10
2685.6095827680952
 20
2663.0310972370844
 11
2685.6095827680952
 21
2623.0310972370844
  0
LINE
  8
_0-3_âh__âÇ
  6
CONTINUOUS
 62
    7
 10
2685.6095827680952
 20
2623.0310972370844
 11
2368.0463154007848
 21
2623.0310972370844
  0
LINE
  8
_0-3_âh__âÇ
  6
CONTINUOUS
 62
    7
 10
2368.0463154007848
 20
2623.0310972370844
 11
2368.0463154007848
 21
2663.0310972370844
  0
TEXT
  8
_0-3_âh__âÇ
 62
    7
 10
2386.1523144509015
 20
2629.2093031254253
 40
24.432617187499943
 41
1.1764705882352973
 50
0
  1
âîâCâxâôâ_ü[âhü[âÇ
  0
LINE
  8
_0-3_âh__âÇ
  6
CONTINUOUS
 62
    7
 10
2805.6110964640288
 20
2363.4076878684318
 11
2792.2054350939252
 21
2317.4941373379488
  0
LINE
  8
_0-3_âh__âÇ
  6
CONTINUOUS
 62
    7
 10
2792.2054350939252
 20
2317.4941373379488
 11
2801.1039517484278
 21
2312.2915993660072
  0
LINE
  8
_0-3_âh__âÇ
  6
CONTINUOUS
 62
    7
 10
2801.1039517484278
 20
2312.2915993660072
 11
2780.5041807374764
 21
2313.0974742298995
  0
LINE
  8
_0-3_âh__âÇ
  6
CONTINUOUS
 62
    7
 10
2780.5041807374764
 20
2313.0974742298995
 11
2789.402697391979
 21
2307.8949362579574
  0
LINE
  8
_0-3_âh__âÇ
  6
CONTINUOUS
 62
    7
 10
2789.402697391979
 20
2307.8949362579574
 11
2775.9970360218763
 21
2261.9813857274744
  0
LINE
  8
_0-3_âh__âÇ
  6
CONTINUOUS
 62
    7
 10
3715.6285509895206
 20
2506.7146665120895
 11
3702.2228896194179
 21
2460.801115981606
  0
LINE
  8
_0-3_âh__âÇ
  6
CONTINUOUS
 62
    7
 10
3702.2228896194179
 20
2460.801115981606
 11
3711.12140627392
 21
2455.5985780096644
  0
LINE
  8
_0-3_âh__âÇ
  6
CONTINUOUS
 62
    7
 10
3711.12140627392
 20
2455.5985780096644
 11
3690.5216352629691
 21
2456.4044528735567
  0
LINE
  8
_0-3_âh__âÇ
  6
CONTINUOUS
 62
    7
 10
3690.5216352629691
 20
2456.4044528735567
 11
3699.4201519174712
 21
2451.2019149016151
  0
LINE
  8
_0-3_âh__âÇ
  6
CONTINUOUS
 62
    7
 10
3699.4201519174712
 20
2451.2019149016151
 11
3686.014490547368
 21
2405.2883643711316
  0
LINE
  8
_0-3_âh__âÇ
  6
CONTINUOUS
 62
    7
 10
3560.513626906275
 20
1364.1992173275125
 11
3555.1549701440636
 21
1384.1979966243875
  0
LINE
  8
_0-3_âh__âÇ
  6
CONTINUOUS
 62
    7
 10
3555.1549701440636
 20
1384.1979966243875
 11
3565.8722836684797
 21
1384.1979966243875
  0
LINE
  8
_0-3_âh__âÇ
  6
CONTINUOUS
 62
    7
 10
3565.8722836684797
 20
1384.1979966243875
 11
3560.513626906275
 21
1364.1992173275125
  0
LINE
  8
_0-3_âh__âÇ
  6
CONTINUOUS
 62
    7
 10
3560.513626906275
 20
1549.2196572833288
 11
3560.513626906275
 21
1384.1979966243875
  0
LINE
  8
_f-f_
  6
CONTINUOUS
 62
    7
 10
3387.5136269062755
 20
1367.1992173275123
 11
3387.5136269062755
 21
1364.1992173275125
  0
LINE
  8
_f-f_
  6
CONTINUOUS
 62
    7
 10
3387.5136269062755
 20
1367.1992173275123
 11
3390.513626906275
 21
1367.1992173275123
  0
LINE
  8
_f-f_
  6
CONTINUOUS
 62
    7
 10
3353.013626906275
 20
1243.1992173275123
 11
3354.0136269062755
 21
1243.1992173275123
  0
LINE
  8
_f-f_
  6
CONTINUOUS
 62
    7
 10
3354.0136269062755
 20
1237.1992173275125
 11
3354.0136269062755
 21
1243.1992173275123
  0
ARC
  8
_f-f_
  6
CONTINUOUS
 62
    7
 10
3355.013626906275
 20
1237.1992173275125
 40
1
 50
180
 51
270
  0
ARC
  8
_f-f_
  6
CONTINUOUS
 62
    7
 10
3355.013626906275
 20
1237.1992173275125
 40
2
 50
180
 51
270
  0
LINE
  8
_f-f_
  6
CONTINUOUS
 62
    7
 10
3353.013626906275
 20
1237.1992173275125
 11
3353.013626906275
 21
1243.1992173275123
  0
LINE
  8
_f-f_
  6
CONTINUOUS
 62
    7
 10
3384.0136269062755
 20
1364.1992173275125
 11
3380.013626906275
 21
1252.1992173275123
  0
LINE
  8
_f-f_
  6
CONTINUOUS
 62
    7
 10
3733.513626906275
 20
1367.1992173275123
 11
3733.513626906275
 21
1364.1992173275125
  0
LINE
  8
_f-f_
  6
CONTINUOUS
 62
    7
 10
3730.5136269062759
 20
1367.1992173275123
 11
3733.513626906275
 21
1367.1992173275123
  0
LINE
  8
_f-f_
  6
CONTINUOUS
 62
    7
 10
3767.013626906275
 20
1243.1992173275123
 11
3768.0136269062759
 21
1243.1992173275123
  0
LINE
  8
_f-f_
  6
CONTINUOUS
 62
    7
 10
3767.013626906275
 20
1237.1992173275125
 11
3767.013626906275
 21
1243.1992173275123
  0
ARC
  8
_f-f_
  6
CONTINUOUS
 62
    7
 10
3766.013626906275
 20
1237.1992173275125
 40
1
 50
270
 51
0
  0
ARC
  8
_f-f_
  6
CONTINUOUS
 62
    7
 10
3766.013626906275
 20
1237.1992173275125
 40
2
 50
270
 51
0
  0
LINE
  8
_f-f_
  6
CONTINUOUS
 62
    7
 10
3768.0136269062759
 20
1243.1992173275123
 11
3768.0136269062759
 21
1237.1992173275125
  0
LINE
  8
_f-f_
  6
CONTINUOUS
 62
    7
 10
3741.013626906275
 20
1252.1992173275123
 11
3737.0136269062755
 21
1364.1992173275125
  0
LINE
  8
_f-f_
  6
CONTINUOUS
 62
    7
 10
3384.0136269062755
 20
1364.1992173275125
 11
3737.0136269062755
 21
1364.1992173275125
  0
LINE
  8
_f-f_
  6
CONTINUOUS
 62
    7
 10
3379.0136269062755
 20
1252.1992173275123
 11
3742.013626906275
 21
1252.1992173275123
  0
LINE
  8
_f-f_
  6
CONTINUOUS
 62
    7
 10
3355.013626906275
 20
1235.1992173275125
 11
3766.013626906275
 21
1235.1992173275125
  0
LINE
  8
_f-f_
  6
CONTINUOUS
 62
    7
 10
3355.013626906275
 20
1236.1992173275123
 11
3379.0136269062755
 21
1236.1992173275123
  0
LINE
  8
_f-f_
  6
CONTINUOUS
 62
    7
 10
3379.0136269062755
 20
1252.1992173275123
 11
3379.0136269062755
 21
1236.1992173275123
  0
LINE
  8
_f-f_
  6
CONTINUOUS
 62
    7
 10
3380.013626906275
 20
1252.1992173275123
 11
3380.013626906275
 21
1235.1992173275125
  0
LINE
  8
_f-f_
  6
CONTINUOUS
 62
    7
 10
3742.013626906275
 20
1252.1992173275123
 11
3742.013626906275
 21
1236.1992173275123
  0
LINE
  8
_f-f_
  6
CONTINUOUS
 62
    7
 10
3766.013626906275
 20
1236.1992173275123
 11
3742.013626906275
 21
1236.1992173275123
  0
LINE
  8
_f-f_
  6
CONTINUOUS
 62
    7
 10
3741.013626906275
 20
1252.1992173275123
 11
3741.013626906275
 21
1235.1992173275125
  0
LINE
  8
_f-f_
  6
CONTINUOUS
 62
    7
 10
3388.113626906274
 20
1364.1992173275125
 11
3732.9136269062769
 21
1364.1992173275125
  0
LINE
  8
_0-3_âh__âÇ
  6
CONTINUOUS
 62
    7
 10
3120.0919493994338
 20
1255.1992173275125
 11
3370.9976173010114
 21
1255.1992173275125
  0
LINE
  8
_0-3_âh__âÇ
  6
CONTINUOUS
 62
    7
 10
3370.9976173010114
 20
1243.1992173275123
 11
3120.0919493994338
 21
1243.1992173275123
  0
LINE
  8
_0-3_âh__âÇ
  6
CONTINUOUS
 62
    7
 10
3120.0919493994338
 20
1243.1992173275123
 11
3120.0919493994338
 21
1245.1992173275125
  0
LINE
  8
_0-3_âh__âÇ
  6
CONTINUOUS
 62
    7
 10
3120.0919493994338
 20
1245.1992173275125
 11
3112.5919493994338
 21
1247.1992173275123
  0
LINE
  8
_0-3_âh__âÇ
  6
CONTINUOUS
 62
    7
 10
3112.5919493994338
 20
1247.1992173275123
 11
3127.5919493994338
 21
1251.1992173275123
  0
LINE
  8
_0-3_âh__âÇ
  6
CONTINUOUS
 62
    7
 10
3127.5919493994338
 20
1251.1992173275123
 11
3120.0919493994338
 21
1253.1992173275123
  0
LINE
  8
_0-3_âh__âÇ
  6
CONTINUOUS
 62
    7
 10
3120.0919493994338
 20
1253.1992173275123
 11
3120.9976173010114
 21
1255.1992173275125
  0
LINE
  8
_0-3_âh__âÇ
  6
CONTINUOUS
 62
    7
 10
3120.0919493994338
 20
1289.4471640560071
 11
3120.0919493994338
 21
1253.1992173275128
  0
LINE
  8
_0-3_âh__âÇ
  6
CONTINUOUS
 62
    7
 10
3120.0919493994338
 20
1253.1992173275128
 11
3127.5919493994338
 21
1251.199217327513
  0
LINE
  8
_0-3_âh__âÇ
  6
CONTINUOUS
 62
    7
 10
3127.5919493994338
 20
1251.199217327513
 11
3112.5919493994338
 21
1247.199217327513
  0
LINE
  8
_0-3_âh__âÇ
  6
CONTINUOUS
 62
    7
 10
3112.5919493994338
 20
1247.199217327513
 11
3120.0919493994338
 21
1245.1992173275128
  0
LINE
  8
_0-3_âh__âÇ
  6
CONTINUOUS
 62
    7
 10
3120.0919493994338
 20
1245.1992173275128
 11
3120.0919493994338
 21
1208.951270599018
  0
LINE
  8
_0-3_âh__âÇ
  6
CONTINUOUS
 62
    7
 10
4000.9353044134004
 20
1243.1992173275123
 11
4000.9353044134004
 21
1245.1992173275125
  0
LINE
  8
_0-3_âh__âÇ
  6
CONTINUOUS
 62
    7
 10
4000.9353044134004
 20
1245.1992173275125
 11
4008.4353044134004
 21
1247.1992173275123
  0
LINE
  8
_0-3_âh__âÇ
  6
CONTINUOUS
 62
    7
 10
4008.4353044134004
 20
1247.1992173275123
 11
3993.4353044134009
 21
1251.1992173275123
  0
LINE
  8
_0-3_âh__âÇ
  6
CONTINUOUS
 62
    7
 10
3993.4353044134009
 20
1251.1992173275123
 11
4000.9353044134004
 21
1253.1992173275123
  0
LINE
  8
_0-3_âh__âÇ
  6
CONTINUOUS
 62
    7
 10
4000.9353044134004
 20
1253.1992173275123
 11
4000.0296365118302
 21
1255.1992173275125
  0
LINE
  8
_0-3_âh__âÇ
  6
CONTINUOUS
 62
    7
 10
4000.9353044134004
 20
1289.4471640560071
 11
4000.9353044134004
 21
1253.1992173275128
  0
LINE
  8
_0-3_âh__âÇ
  6
CONTINUOUS
 62
    7
 10
4000.9353044134004
 20
1253.1992173275128
 11
3993.4353044134009
 21
1251.199217327513
  0
LINE
  8
_0-3_âh__âÇ
  6
CONTINUOUS
 62
    7
 10
3993.4353044134009
 20
1251.199217327513
 11
4008.4353044134004
 21
1247.199217327513
  0
LINE
  8
_0-3_âh__âÇ
  6
CONTINUOUS
 62
    7
 10
4008.4353044134004
 20
1247.199217327513
 11
4000.9353044134004
 21
1245.1992173275128
  0
LINE
  8
_0-3_âh__âÇ
  6
CONTINUOUS
 62
    7
 10
4000.9353044134004
 20
1245.1992173275128
 11
4000.9353044134004
 21
1208.951270599018
  0
LINE
  8
_0-3_âh__âÇ
  6
CONTINUOUS
 62
    7
 10
3120.9976173010114
 20
1255.1992173275125
 11
3375.513626906275
 21
1255.1992173275125
  0
LINE
  8
_0-3_âh__âÇ
  6
CONTINUOUS
 62
    7
 10
3375.513626906275
 20
1243.1992173275123
 11
3375.513626906275
 21
1255.1992173275125
  0
LINE
  8
_0-3_âh__âÇ
  6
CONTINUOUS
 62
    7
 10
3375.513626906275
 20
1243.1992173275123
 11
3120.0919493994338
 21
1243.1992173275123
  0
LINE
  8
_0-3_âh__âÇ
  6
CONTINUOUS
 62
    7
 10
4000.9353044134004
 20
1255.1992173275125
 11
3745.513626906275
 21
1255.1992173275125
  0
LINE
  8
_0-3_âh__âÇ
  6
CONTINUOUS
 62
    7
 10
3745.513626906275
 20
1243.1992173275123
 11
3745.513626906275
 21
1255.1992173275125
  0
LINE
  8
_0-3_âh__âÇ
  6
CONTINUOUS
 62
    7
 10
3745.513626906275
 20
1243.1992173275123
 11
4000.9353044134004
 21
1243.1992173275123
  0
LINE
  8
_f-f_
  6
CONTINUOUS
 62
    7
 10
3769.7136269062753
 20
1243.1992173275123
 11
3770.513626906275
 21
1243.1992173275123
  0
LINE
  8
_f-f_
  6
CONTINUOUS
 62
    7
 10
3350.513626906275
 20
1243.1992173275123
 11
3351.3136269062752
 21
1243.1992173275123
  0
LINE
  8
_f-f_
  6
CONTINUOUS
 62
    7
 10
3382.513626906275
 20
1233.9992173275123
 11
3382.513626906275
 21
1233.1992173275123
  0
LINE
  8
_f-f_
  6
CONTINUOUS
 62
    7
 10
3738.513626906275
 20
1233.9992173275123
 11
3738.513626906275
 21
1233.1992173275123
  0
LINE
  8
_f-f_
  6
CONTINUOUS
 62
    7
 10
3351.3136269062752
 20
1234.9992173275123
 11
3351.3136269062752
 21
1243.1992173275123
  0
LINE
  8
_f-f_
  6
CONTINUOUS
 62
    7
 10
3350.513626906275
 20
1243.1992173275123
 11
3350.513626906275
 21
1234.9992173275123
  0
LINE
  8
_f-f_
  6
CONTINUOUS
 62
    7
 10
3352.3136269062752
 20
1233.1992173275123
 11
3382.513626906275
 21
1233.1992173275123
  0
LINE
  8
_f-f_
  6
CONTINUOUS
 62
    7
 10
3769.7136269062753
 20
1234.9992173275123
 11
3769.7136269062753
 21
1243.1992173275123
  0
LINE
  8
_f-f_
  6
CONTINUOUS
 62
    7
 10
3770.513626906275
 20
1243.1992173275123
 11
3770.513626906275
 21
1234.9992173275123
  0
LINE
  8
_f-f_
  6
CONTINUOUS
 62
    7
 10
3738.513626906275
 20
1233.1992173275123
 11
3768.7136269062748
 21
1233.1992173275123
  0
LINE
  8
_f-f_
  6
CONTINUOUS
 62
    7
 10
3357.3136269062752
 20
1234.6992173275123
 11
3763.7136269062748
 21
1234.6992173275123
  0
LINE
  8
_f-f_
  6
CONTINUOUS
 62
    7
 10
3763.7136269062748
 20
1233.9992173275123
 11
3763.7136269062748
 21
1234.6992173275123
  0
LINE
  8
_f-f_
  6
CONTINUOUS
 62
    7
 10
3768.7136269062748
 20
1233.9992173275123
 11
3352.3136269062752
 21
1233.9992173275123
  0
LINE
  8
_f-f_
  6
CONTINUOUS
 62
    7
 10
3357.3136269062752
 20
1233.9992173275123
 11
3357.3136269062752
 21
1234.6992173275123
  0
ARC
  8
_f-f_
  6
CONTINUOUS
 62
    7
 10
3352.3136269062752
 20
1234.9992173275123
 40
1
 50
180
 51
270
  0
ARC
  8
_f-f_
  6
CONTINUOUS
 62
    7
 10
3352.3136269062752
 20
1234.9992173275123
 40
1.8000000000000003
 50
180
 51
270
  0
ARC
  8
_f-f_
  6
CONTINUOUS
 62
    7
 10
3768.7136269062748
 20
1234.9992173275123
 40
1
 50
270
 51
0
  0
ARC
  8
_f-f_
  6
CONTINUOUS
 62
    7
 10
3768.7136269062748
 20
1234.9992173275123
 40
1.8000000000000003
 50
270
 51
0
  0
LINE
  8
_0-3_âh__âÇ
  6
CONTINUOUS
 62
    7
 10
3350.513626906275
 20
1127.2641258043286
 11
3370.51240620315
 21
1132.6227825665344
  0
LINE
  8
_0-3_âh__âÇ
  6
CONTINUOUS
 62
    7
 10
3370.51240620315
 20
1132.6227825665344
 11
3370.51240620315
 21
1121.9054690421226
  0
LINE
  8
_0-3_âh__âÇ
  6
CONTINUOUS
 62
    7
 10
3370.51240620315
 20
1121.9054690421226
 11
3350.513626906275
 21
1127.2641258043286
  0
LINE
  8
_0-3_âh__âÇ
  6
CONTINUOUS
 62
    7
 10
3770.513626906275
 20
1127.2641258043286
 11
3750.5148476094
 21
1121.9054690421226
  0
LINE
  8
_0-3_âh__âÇ
  6
CONTINUOUS
 62
    7
 10
3750.5148476094
 20
1121.9054690421226
 11
3750.5148476094
 21
1132.6227825665344
  0
LINE
  8
_0-3_âh__âÇ
  6
CONTINUOUS
 62
    7
 10
3750.5148476094
 20
1132.6227825665344
 11
3770.513626906275
 21
1127.2641258043286
  0
LINE
  8
_0-3_âh__âÇ
  6
CONTINUOUS
 62
    7
 10
3770.513626906275
 20
1213.9992173275123
 11
3770.513626906275
 21
1127.2641258043286
  0
LINE
  8
_0-3_âh__âÇ
  6
CONTINUOUS
 62
    7
 10
3343.6095827680947
 20
1331.7712250801685
 11
3312.9227766650183
 21
1319.9916638670923
  0
LINE
  8
_0-3_âh__âÇ
  6
CONTINUOUS
 62
    7
 10
3312.9227766650183
 20
1319.9916638670923
 11
3311.1442485152838
 21
1336.9132288757487
  0
LINE
  8
_0-3_âh__âÇ
  6
CONTINUOUS
 62
    7
 10
3311.1442485152838
 20
1336.9132288757487
 11
3343.6095827680947
 21
1331.7712250801685
  0
LINE
  8
_0-3_âh__âÇ
  6
CONTINUOUS
 62
    7
 10
2669.6095827680947
 20
1275.6462250801683
 11
2669.6095827680947
 21
1235.6462250801683
  0
LINE
  8
_0-3_âh__âÇ
  6
CONTINUOUS
 62
    7
 10
3336.2485597999944
 20
1225.3528173082648
 11
3307.7822885586611
 21
1208.9178079442547
  0
LINE
  8
_0-3_âh__âÇ
  6
CONTINUOUS
 62
    7
 10
3307.7822885586611
 20
1208.9178079442547
 11
3303.3785410719756
 21
1225.3528173082648
  0
LINE
  8
_0-3_âh__âÇ
  6
CONTINUOUS
 62
    7
 10
3303.3785410719756
 20
1225.3528173082648
 11
3336.2485597999944
 21
1225.3528173082648
  0
LINE
  8
_0-3_âh__âÇ
  6
CONTINUOUS
 62
    7
 10
2990.7763770132115
 20
1147.3528173082648
 11
2990.7763770132115
 21
1107.3528173082648
  0
TEXT
  8
_0-3_âh__âÇ
 62
    7
 10
2808.1353840531847
 20
1114.6698444254753
 40
24.432617187500014
 41
1.1764705882352937
 50
0
  1
ÄUî§âJâoü[
  0
TEXT
  8
_0-3_âh__âÇ
 62
    7
 10
3237.9175180289585
 20
2414.8636179711484
 40
27.147352430555571
 41
1.1764705882352928
 50
0
  1
300
  0
LINE
  8
_f-f_
  6
CONTINUOUS
 62
    7
 10
3165.0305178260414
 20
2284.4727744102083
 11
3164.9779270741301
 21
2284.4675768282018
  0
LINE
  8
_0-3_âh__âÇ
  6
CONTINUOUS
 62
    7
 10
3170.5199288394679
 20
2279.0809015836858
 11
3182.6895874350112
 21
2262.3308035144746
  0
LINE
  8
_0-3_âh__âÇ
  6
CONTINUOUS
 62
    7
 10
3182.6895874350112
 20
2262.3308035144746
 11
3172.6841133039875
 21
2258.490061842097
  0
LINE
  8
_0-3_âh__âÇ
  6
CONTINUOUS
 62
    7
 10
3172.6841133039875
 20
2258.490061842097
 11
3170.5199288394679
 21
2279.0809015836858
  0
LINE
  8
_0-3_âh__âÇ
  6
CONTINUOUS
 62
    7
 10
3301.183536356747
 20
1954.3856057660978
 11
3289.0138777612037
 21
1971.135703835309
  0
LINE
  8
_0-3_âh__âÇ
  6
CONTINUOUS
 62
    7
 10
3289.0138777612037
 20
1971.135703835309
 11
3299.019351892227
 21
1974.9764455076865
  0
LINE
  8
_0-3_âh__âÇ
  6
CONTINUOUS
 62
    7
 10
3299.019351892227
 20
1974.9764455076865
 11
3301.183536356747
 21
1954.3856057660978
  0
TEXT
  8
_0-3_âh__âÇ
 62
    7
 10
3217.2965082179212
 20
2173.4799934342241
 40
27.147352430555571
 41
1.1764705882352964
 50
0
  1
400
  0
TEXT
  8
_0-3_âh__âÇ
 62
    7
 10
3302.8527397474854
 20
2129.0396476402984
 40
27.147352430555642
 41
1.1764705882352908
 50
21.920798979999979
  1
âË344
  0
TEXT
  8
_0-3_âh__âÇ
 62
    7
 10
3005.0351764779884
 20
2177.9721822907181
 40
27.147352430555571
 41
1.1764705882352948
 50
0
  1
50
  0
TEXT
  8
_0-3_âh__âÇ
 62
    7
 10
3094.1254733955798
 20
2277.7245197755865
 40
24.432617187500057
 41
1.1764705882352924
 50
13.815652270000015
  1
ë±ô]Ä®ì¦É┌æ▒0üïü`ü@30üï
  0
TEXT
  8
_0-3_âh__âÇ
 62
    7
 10
3133.1781512414755
 20
1854.674880044729
 40
27.147352430555571
 41
1.1764705882352948
 50
0
  1
50
  0
TEXT
  8
_0-3_âh__âÇ
 62
    7
 10
3518.017773601282
 20
1814.3747871532519
 40
27.147352430555571
 41
1.1764705882352928
 50
0
  1
400
  0
TEXT
  8
_0-3_âh__âÇ
 62
    7
 10
3270.5784006081744
 20
1531.3785792931028
 40
27.147352430555554
 41
1.1764705882352955
 50
0
  1
50
  0
TEXT
  8
_0-3_âh__âÇ
 62
    7
 10
3415.5024522166705
 20
1461.022815617675
 40
24.432617187500014
 41
1.1764705882352937
 50
12.93598484
  1
ë±ô]Ä®ì¦É┌æ▒0üïü`ü@30üï
  0
TEXT
  8
_0-3_âh__âÇ
 62
    7
 10
3572.6196503000374
 20
1436.2866429350322
 40
27.147352430555564
 41
1.1764705882352897
 50
0
  1
300
  0
LINE
  8
_0-3_âh__âÇ
  6
CONTINUOUS
 62
    7
 10
3261.0878683591336
 20
1558.5121043110521
 11
3065.5923104037756
 21
1699.26890603891
  0
TEXT
  8
_0-3_âh__âÇ
 62
    7
 10
3536.5600806440207
 20
1127.2641258043286
 40
27.147352430555571
 41
1.1764705882352964
 50
0
  1
420
  0
SOLID
  8
_0-3_âh__âÇ
  6
CONTINUOUS
 62
    8
 10
3083.1657856763964
 20
2632.8550983190125
 11
3051.1382233988807
 21
2625.4609529498421
 12
3051.7320304381974
 22
2642.4653617287922
 13
3051.7320304381974
 23
2642.4653617287922
  0
SOLID
  8
_0-3_âh__âÇ
  6
CONTINUOUS
 62
    8
 10
3283.6095827680947
 20
2591.4267147352975
 11
3253.5813264664871
 21
2578.0572736600234
 12
3250.9196294419125
 22
2594.8625672805156
 13
3250.9196294419125
 23
2594.8625672805156
  0
SOLID
  8
_0-3_âh__âÇ
  6
CONTINUOUS
 62
    8
 10
3178.5370739949831
 20
2526.5823716055747
 11
3190.7067325905268
 21
2509.8322735363636
 12
3180.7012584595032
 22
2505.991531863986
 13
3180.7012584595032
 23
2505.991531863986
  0
SOLID
  8
_0-3_âh__âÇ
  6
CONTINUOUS
 62
    8
 10
3035.0817655548781
 20
2417.0310972370839
 11
3006.6154943135443
 21
2400.5960878730739
 12
3002.2117468268589
 22
2417.0310972370839
 13
3002.2117468268589
 23
2417.0310972370839
  0
SOLID
  8
_0-3_âh__âÇ
  6
CONTINUOUS
 62
    8
 10
3117.6095827680952
 20
2391.0310972370844
 11
3096.0449101984887
 21
2366.223779200945
 12
3086.530369480457
 22
2380.3296659028301
 13
3086.530369480457
 23
2380.3296659028301
  0
SOLID
  8
_0-3_âh__âÇ
  6
CONTINUOUS
 62
    8
 10
3280.9488327726831
 20
2269.4476692405274
 11
3268.7791741771398
 21
2286.1977673097385
 12
3278.784648308163
 22
2290.0385089821161
 13
3278.784648308163
 23
2290.0385089821161
  0
SOLID
  8
_0-3_âh__âÇ
  6
CONTINUOUS
 62
    8
 10
3170.5199288394679
 20
2279.0809015836858
 11
3182.6895874350112
 21
2262.3308035144746
 12
3172.6841133039875
 22
2258.490061842097
 13
3172.6841133039875
 23
2258.490061842097
  0
SOLID
  8
_0-3_âh__âÇ
  6
CONTINUOUS
 62
    8
 10
3035.7137733734962
 20
2224.8323508038029
 11
3044.845734242092
 21
2212.2632849658207
 12
3037.3377505530771
 22
2209.3812400519751
 13
3037.3377505530771
 23
2209.3812400519751
  0
SOLID
  8
_0-3_âh__âÇ
  6
CONTINUOUS
 62
    8
 10
3054.3800019936207
 20
2178.447311091616
 11
3045.2480411250326
 21
2191.0163769295973
 12
3052.7560248140476
 22
2193.898421843443
 13
3052.7560248140476
 23
2193.898421843443
  0
SOLID
  8
_0-3_âh__âÇ
  6
CONTINUOUS
 62
    8
 10
3487.1880550514361
 20
2199.8202067052557
 11
3470.4379569822231
 21
2187.6505481097133
 12
3466.5972153098446
 22
2197.6560222407388
 13
3466.5972153098446
 23
2197.6560222407388
  0
SOLID
  8
_0-3_âh__âÇ
  6
CONTINUOUS
 62
    8
 10
3167.2886194667121
 20
2071.0865452245016
 11
3184.0387175359178
 21
2083.2562038200435
 12
3187.8794592082959
 22
2073.2507296890199
 13
3187.8794592082959
 23
2073.2507296890199
  0
SOLID
  8
_0-3_âh__âÇ
  6
CONTINUOUS
 62
    8
 10
3182.6028607993248
 20
2033.0310972370842
 11
3157.7955427631859
 21
2011.4664246674795
 12
3150.3367568954673
 22
2026.7592019855826
 13
3150.3367568954673
 23
2026.7592019855826
  0
SOLID
  8
_0-3_âh__âÇ
  6
CONTINUOUS
 62
    8
 10
3172.7239995688033
 20
1903.2255857460818
 11
3181.8559604373918
 21
1890.6565199081001
 12
3174.3479767483768
 22
1887.7744749942544
 13
3174.3479767483768
 23
1887.7744749942544
  0
SOLID
  8
_0-3_âh__âÇ
  6
CONTINUOUS
 62
    8
 10
3191.3902281889277
 20
1856.8405460338952
 11
3182.2582673203328
 21
1869.4096118718767
 12
3189.7662510093469
 22
1872.2916567857226
 13
3189.7662510093469
 23
1872.2916567857226
  0
SOLID
  8
_0-3_âh__âÇ
  6
CONTINUOUS
 62
    8
 10
3301.183536356747
 20
1954.3856057660978
 11
3289.0138777612037
 21
1971.135703835309
 12
3299.019351892227
 22
1974.9764455076865
 13
3299.019351892227
 23
1974.9764455076865
  0
SOLID
  8
_0-3_âh__âÇ
  6
CONTINUOUS
 62
    8
 10
3434.6095827680947
 20
2006.8248028394635
 11
3446.779241363638
 21
1990.0747047702521
 12
3436.7737672326148
 22
1986.2339630978747
 13
3436.7737672326148
 23
1986.2339630978747
  0
SOLID
  8
_0-3_âh__âÇ
  6
CONTINUOUS
 62
    8
 10
3319.6983005883048
 20
1692.3528837437175
 11
3286.8733290785713
 21
1690.6325998818636
 12
3290.4108994514427
 22
1707.2755599724997
 13
3290.4108994514427
 23
1707.2755599724997
  0
SOLID
  8
_0-3_âh__âÇ
  6
CONTINUOUS
 62
    8
 10
3304.7239995688033
 20
1578.8927365226471
 11
3313.8559604373913
 21
1566.3236706846651
 12
3306.3479767483773
 22
1563.4416257708187
 13
3306.3479767483773
 23
1563.4416257708187
  0
SOLID
  8
_0-3_âh__âÇ
  6
CONTINUOUS
 62
    8
 10
3323.3902281889277
 20
1532.507696810459
 11
3314.2582673203328
 21
1545.076762648441
 12
3321.7662510093469
 22
1547.9588075622873
 13
3321.7662510093469
 23
1547.9588075622873
  0
SOLID
  8
_0-3_âh__âÇ
  6
CONTINUOUS
 62
    8
 10
3514.7115464586277
 20
1663.0365315273016
 11
3526.8812050541715
 21
1646.2864334580904
 12
3516.8757309231478
 22
1642.4456917857128
 13
3516.8757309231478
 23
1642.4456917857128
  0
SOLID
  8
_0-3_âh__âÇ
  6
CONTINUOUS
 62
    8
 10
3583.9394117294396
 20
1635.7444851421019
 11
3571.7697531338968
 21
1652.4945832113133
 12
3581.7752272649273
 22
1656.3353248836906
 13
3581.7752272649273
 23
1656.3353248836906
  0
SOLID
  8
_0-3_âh__âÇ
  6
CONTINUOUS
 62
    8
 10
3560.513626906275
 20
1364.1992173275125
 11
3555.1549701440636
 21
1384.1979966243875
 12
3565.8722836684797
 22
1384.1979966243875
 13
3565.8722836684797
 23
1384.1979966243875
  0
SOLID
  8
_0-3_âh__âÇ
  6
CONTINUOUS
 62
    8
 10
3419.3918413780307
 20
1383.0310972370842
 11
3386.7018880518481
 21
1379.595244691865
 12
3389.3635850764222
 22
1396.4005383123576
 13
3389.3635850764222
 23
1396.4005383123576
  0
SOLID
  8
_0-3_âh__âÇ
  6
CONTINUOUS
 62
    8
 10
3343.6095827680947
 20
1331.7712250801685
 11
3312.9227766650183
 21
1319.9916638670923
 12
3311.1442485152838
 22
1336.9132288757487
 13
3311.1442485152838
 23
1336.9132288757487
  0
SOLID
  8
_0-3_âh__âÇ
  6
CONTINUOUS
 62
    8
 10
3336.2485597999944
 20
1225.3528173082648
 11
3307.7822885586611
 21
1208.9178079442547
 12
3303.3785410719756
 22
1225.3528173082648
 13
3303.3785410719756
 23
1225.3528173082648
  0
SOLID
  8
_0-3_âh__âÇ
  6
CONTINUOUS
 62
    8
 10
3350.513626906275
 20
1127.2641258043286
 11
3370.51240620315
 21
1132.6227825665344
 12
3370.51240620315
 22
1121.9054690421226
 13
3370.51240620315
 23
1121.9054690421226
  0
SOLID
  8
_0-3_âh__âÇ
  6
CONTINUOUS
 62
    8
 10
3770.513626906275
 20
1127.2641258043286
 11
3750.5148476094
 21
1121.9054690421226
 12
3750.5148476094
 22
1132.6227825665344
 13
3750.5148476094
 23
1132.6227825665344
  0
LINE
  8
_0-3_âh__âÇ
  6
CONTINUOUS
 62
    7
 10
3051.4248041695787
 20
2633.6675524855154
 11
2685.6095827680952
 21
2643.0310972370844
  0
LINE
  8
_0-3_âh__âÇ
  6
CONTINUOUS
 62
    7
 10
3252.3161464668156
 20
2586.0453057992754
 11
2699.6095827680947
 21
2490.9985358552294
  0
LINE
  8
_0-3_âh__âÇ
  6
CONTINUOUS
 62
    7
 10
3004.533678639219
 20
2408.3655297416476
 11
2689.6095827680947
 21
2319.0310972370839
  0
LINE
  8
_0-3_âh__âÇ
  6
CONTINUOUS
 62
    7
 10
3091.392267093066
 20
2373.1216062694675
 11
2732.6095827680952
 21
2128.0310972370844
  0
LINE
  8
_0-3_âh__âÇ
  6
CONTINUOUS
 62
    7
 10
3185.937465076785
 20
2508.001523264375
 11
3273.5484416908821
 21
2288.0285175817271
  0
LINE
  8
_0-3_âh__âÇ
  6
CONTINUOUS
 62
    7
 10
3041.316917546802
 20
2210.9086991502663
 11
3048.7768578203168
 21
2192.3709627451494
  0
LINE
  8
_0-3_âh__âÇ
  6
CONTINUOUS
 62
    7
 10
3185.8438990463128
 20
2078.5535452075273
 11
3468.6327754718291
 21
2192.3532067222272
  0
LINE
  8
_0-3_âh__âÇ
  6
CONTINUOUS
 62
    7
 10
3154.2912096735417
 20
2018.6513722633515
 11
2739.6095827680947
 21
1808.0310972370842
  0
LINE
  8
_0-3_âh__âÇ
  6
CONTINUOUS
 62
    7
 10
3177.9869288225059
 20
2260.5256220040837
 11
3293.7165363737085
 21
1972.9408853456994
  0
LINE
  8
_0-3_âh__âÇ
  6
CONTINUOUS
 62
    7
 10
3178.3271437421081
 20
1889.301934092548
 11
3185.7870840156229
 21
1870.7641976874313
  0
LINE
  8
_0-3_âh__âÇ
  6
CONTINUOUS
 62
    7
 10
3288.5526971869367
 20
1698.5334056493869
 11
2739.6095827680947
 21
1807.4654722370842
  0
LINE
  8
_0-3_âh__âÇ
  6
CONTINUOUS
 62
    7
 10
3310.3271437421081
 20
1564.9690848691125
 11
3317.7644069196194
 21
1546.4877003934648
  0
LINE
  8
_0-3_âh__âÇ
  6
CONTINUOUS
 62
    7
 10
3522.1785449955655
 20
1644.481251392594
 11
3560.513626906275
 21
1549.2196572833288
  0
LINE
  8
_0-3_âh__âÇ
  6
CONTINUOUS
 62
    7
 10
3442.0765827511332
 20
1988.2695232598617
 11
3576.4724117464029
 21
1654.2997647217026
  0
LINE
  8
_0-3_âh__âÇ
  6
CONTINUOUS
 62
    7
 10
3388.1136269064195
 20
1387.9689204184201
 11
2741.6095827680947
 21
1490.0310972370839
  0
LINE
  8
_0-3_âh__âÇ
  6
CONTINUOUS
 62
    7
 10
3560.513626906275
 20
1394.8516424539976
 11
3560.513626906275
 21
1510.920306078312
  0
LINE
  8
_0-3_âh__âÇ
  6
CONTINUOUS
 62
    7
 10
3312.0592294132598
 20
1328.2077671437637
 11
2669.6095827680947
 21
1255.6462250801683
  0
LINE
  8
_0-3_âh__âÇ
  6
CONTINUOUS
 62
    7
 10
3305.7004728843358
 20
1216.6872498128284
 11
2990.7763770132115
 21
1127.3528173082648
  0
LINE
  8
_0-3_âh__âÇ
  6
CONTINUOUS
 62
    7
 10
3370.51240620315
 20
1127.2641258043286
 11
3750.5148476094
 21
1127.2641258043286
  0
ARC
  8
_f-f_
  6
CONTINUOUS
 62
    7
 10
3225.848414616401
 20
2522.8985168941417
 40
164.26179999998797
 50
96.907479507453033
 51
118.53234632335435
  0
ARC
  8
_f-f_
  6
CONTINUOUS
 62
    7
 10
3218.6410100627222
 20
2522.1862038949412
 40
164.26179999999448
 50
72.756161943091556
 51
94.381028758990965
  0
LINE
  8
_0-3_âh__âÇ
  6
DASHED1
 62
    7
 10
3095.7035571465422
 20
2248.9733602898623
 11
3415.602992731252
 21
2377.707021770646
  0
LINE
  8
_0-3_âh__âÇ
  6
DASHED1
 62
    7
 10
3226.3671574875734
 20
1924.278082304611
 11
3546.266603040629
 21
2053.0117190143442
  0
LINE
  8
_0-3_âh__âÇ
  6
DASHED1
 62
    7
 10
3676.9302133500059
 20
1728.3164162580431
 11
3357.0589695273484
 21
1599.5941284623736
  0
LINE
  8
_0-3_âh__âÇ
  6
DASHED1
 62
    7
 10
3390.513626906275
 20
1414.1992173275125
 11
3390.513626906275
 21
1364.1992173275125
  0
LINE
  8
_0-3_âh__âÇ
  6
DASHED1
 62
    7
 10
3390.513626906275
 20
1414.1992173275125
 11
3730.5136269062759
 21
1414.1992173275125
  0
LINE
  8
_0-3_âh__âÇ
  6
DASHED1
 62
    7
 10
3730.5136269062759
 20
1414.1992173275125
 11
3730.5136269062759
 21
1364.1992173275125
  0
TEXT
  8
_0-3_âh__âÇ
 62
    7
 10
2482.6766189220443
 20
1243.651211534172
 40
24.432617187500014
 41
1.1764705882352942
 50
0
  1
ÿAîïâ{âbâNâX
  0
LINE
  8
_0-3_âh__âÇ
  6
CONTINUOUS
 62
    7
 10
2787.2016012885661
 20
1147.3528173082648
 11
2990.7763770132115
 21
1147.3528173082648
  0
LINE
  8
_0-3_âh__âÇ
  6
CONTINUOUS
 62
    7
 10
2787.2016012885661
 20
1107.3528173082648
 11
2787.2016012885661
 21
1147.3528173082648
  0
LINE
  8
_0-3_âh__âÇ
  6
CONTINUOUS
 62
    7
 10
2990.7763770132115
 20
1107.3528173082648
 11
2787.2016012885661
 21
1107.3528173082648
  0
LINE
  8
_0-3_âh__âÇ
  6
CONTINUOUS
 62
    7
 10
2463.8495484914492
 20
1275.6462250801683
 11
2669.6095827680947
 21
1275.6462250801683
  0
LINE
  8
_0-3_âh__âÇ
  6
CONTINUOUS
 62
    7
 10
2463.8495484914492
 20
1235.6462250801683
 11
2463.8495484914492
 21
1275.6462250801683
  0
LINE
  8
_0-3_âh__âÇ
  6
CONTINUOUS
 62
    7
 10
2669.6095827680947
 20
1235.6462250801683
 11
2463.8495484914492
 21
1235.6462250801683
  0
TEXT
  8
_0-3_âh__âÇ
 62
    7
 10
2214.1621337383513
 20
643.74421996836088
 40
30
 41
1.1764705882352919
 50
90
  1
300
  0
CIRCLE
  8
_0-3_âh__âÇ
  6
CONTINUOUS
 62
    7
 10
2214.2521337383478
 20
520.21480820365468
 40
4
  0
CIRCLE
  8
_0-3_âh__âÇ
  6
CONTINUOUS
 62
    7
 10
2214.2521337383478
 20
820.21480820365514
 40
4
  0
LINE
  8
_0-3_âh__âÇ
  6
CONTINUOUS
 62
    7
 10
2275.756469148841
 20
520.21480820365468
 11
2214.0721337383475
 21
520.21480820365468
  0
LINE
  8
_0-3_âh__âÇ
  6
CONTINUOUS
 62
    7
 10
2275.756469148841
 20
820.21480820365514
 11
2214.0721337383475
 21
820.21480820365514
  0
LINE
  8
_0-3_âh__âÇ
  6
CONTINUOUS
 62
    7
 10
3533.6939983622324
 20
713.33663078160657
 11
3472.0096629517393
 21
713.33663078160657
  0
LINE
  8
_0-3_âh__âÇ
  6
CONTINUOUS
 62
    7
 10
4074.6095827680947
 20
251.42080642496282
 11
2122.6095827680952
 21
251.42080642496282
  0
TEXT
  8
_0-3_âh__âÇ
 62
    7
 10
2358.3040272125399
 20
286.14302864718479
 40
27.147352430555571
 41
1.1764705882352937
 50
0
  1
èpôxéOüïé╠ÅÛìç
  0
TEXT
  8
_0-3_âh__âÇ
 62
    7
 10
3042.1373605458757
 20
286.14302864718479
 40
27.147352430555571
 41
1.1764705882352933
 50
0
  1
èpôxéPéTüïé╠ÅÛìç
  0
TEXT
  8
_0-3_âh__âÇ
 62
    7
 10
3665.3126258939778
 20
286.14302864718479
 40
27.147352430555571
 41
1.1764705882352939
 50
0
  1
èpôxéRéOüïé╠ÅÛìç
  0
LINE
  8
_0-3_âh__âÇ
  6
CONTINUOUS
 62
    7
 10
2740.2592958069404
 20
391.42080642496285
 11
2725.2481888080115
 21
365.42080642496262
  0
LINE
  8
_0-3_âh__âÇ
  6
CONTINUOUS
 62
    7
 10
2725.2481888080115
 20
365.42080642496262
 11
2658.2664772583194
 21
365.42080642496262
  0
TEXT
  8
_0-3_âh__âÇ
 62
    7
 10
2591.5458978857391
 20
354.6464446037088
 40
16.288411458333343
 41
1.1764705882352939
 50
0
  1
ôVêõìÌ
  0
LINE
  8
_0-3_âh__âÇ
  6
CONTINUOUS
 62
    7
 10
3172.2095827680864
 20
383.98965040049262
 11
3172.2095827680864
 21
349.50549494895438
  0
LINE
  8
_0-3_âh__âÇ
  6
CONTINUOUS
 62
    7
 10
3136.2095827680932
 20
383.98965040049262
 11
3136.2095827680932
 21
349.50549494895438
  0
CIRCLE
  8
_0-3_âh__âÇ
  6
CONTINUOUS
 62
    7
 10
3172.2095827680864
 20
349.6854949489541
 40
4
  0
CIRCLE
  8
_0-3_âh__âÇ
  6
CONTINUOUS
 62
    7
 10
3136.2095827680932
 20
349.6854949489541
 40
4
  0
LINE
  8
_0-3_âh__âÇ
  6
CONTINUOUS
 62
    7
 10
3172.2095827680864
 20
349.6854949489541
 11
3136.2095827680932
 21
349.6854949489541
  0
TEXT
  8
_0-3_âh__âÇ
 62
    7
 10
3136.5625239445544
 20
349.77549494895425
 40
30.000000000000142
 41
1.1764705882352873
 50
0
  1
36
  0
LINE
  8
_0-3_âh__âÇ
  6
CONTINUOUS
 62
    7
 10
2122.6095827680952
 20
949.12967906106769
 11
2824.6095827680947
 21
949.12967906106769
  0
LINE
  8
_0-3_âh__âÇ
  6
CONTINUOUS
 62
    7
 10
2122.6095827680952
 20
251.42080642496282
 11
2122.6095827680952
 21
1037.1296790610679
  0
LINE
  8
_f-f_
  6
CONTINUOUS
 62
    7
 10
2122.6095827680952
 20
1037.1296790610679
 11
4074.6095827680947
 21
1037.1296790610679
  0
LINE
  8
_0-3_âh__âÇ
  6
CONTINUOUS
 62
    7
 10
4074.6095827680947
 20
1037.1296790610679
 11
4074.6095827680947
 21
251.42080642496282
  0
LINE
  8
_f-f_
  6
CONTINUOUS
 62
    7
 10
3629.2095827680937
 20
530.1366307816063
 11
3629.2095827680937
 21
527.13663078160653
  0
LINE
  8
_f-f_
  6
CONTINUOUS
 62
    7
 10
3629.2095827680937
 20
530.1366307816063
 11
3632.2095827680932
 21
530.1366307816063
  0
LINE
  8
_f-f_
  6
CONTINUOUS
 62
    7
 10
3594.7095827680932
 20
406.1366307816063
 11
3595.7095827680932
 21
406.1366307816063
  0
LINE
  8
_f-f_
  6
CONTINUOUS
 62
    7
 10
3595.7095827680932
 20
400.13663078160647
 11
3595.7095827680932
 21
406.1366307816063
  0
ARC
  8
_f-f_
  6
CONTINUOUS
 62
    7
 10
3596.7095827680937
 20
400.13663078160647
 40
1
 50
180
 51
270
  0
ARC
  8
_f-f_
  6
CONTINUOUS
 62
    7
 10
3596.7095827680937
 20
400.13663078160647
 40
2
 50
180
 51
270
  0
LINE
  8
_f-f_
  6
CONTINUOUS
 62
    7
 10
3594.7095827680932
 20
400.13663078160647
 11
3594.7095827680932
 21
406.1366307816063
  0
LINE
  8
_f-f_
  6
CONTINUOUS
 62
    7
 10
3625.7095827680932
 20
527.13663078160653
 11
3621.7095827680937
 21
415.1366307816063
  0
LINE
  8
_f-f_
  6
CONTINUOUS
 62
    7
 10
3975.2095827680932
 20
530.1366307816063
 11
3975.2095827680932
 21
527.13663078160653
  0
LINE
  8
_f-f_
  6
CONTINUOUS
 62
    7
 10
3972.2095827680937
 20
530.1366307816063
 11
3975.2095827680932
 21
530.1366307816063
  0
LINE
  8
_f-f_
  6
CONTINUOUS
 62
    7
 10
4008.7095827680932
 20
406.1366307816063
 11
4009.7095827680937
 21
406.1366307816063
  0
LINE
  8
_f-f_
  6
CONTINUOUS
 62
    7
 10
4008.7095827680932
 20
400.13663078160647
 11
4008.7095827680932
 21
406.1366307816063
  0
ARC
  8
_f-f_
  6
CONTINUOUS
 62
    7
 10
4007.7095827680932
 20
400.13663078160647
 40
1
 50
270
 51
0
  0
ARC
  8
_f-f_
  6
CONTINUOUS
 62
    7
 10
4007.7095827680932
 20
400.13663078160647
 40
2
 50
270
 51
0
  0
LINE
  8
_f-f_
  6
CONTINUOUS
 62
    7
 10
4009.7095827680937
 20
406.1366307816063
 11
4009.7095827680937
 21
400.13663078160647
  0
LINE
  8
_f-f_
  6
CONTINUOUS
 62
    7
 10
3982.7095827680932
 20
415.1366307816063
 11
3978.7095827680932
 21
527.13663078160653
  0
LINE
  8
_f-f_
  6
CONTINUOUS
 62
    7
 10
3625.7095827680932
 20
527.13663078160653
 11
3978.7095827680932
 21
527.13663078160653
  0
LINE
  8
_f-f_
  6
CONTINUOUS
 62
    7
 10
3620.7095827680932
 20
415.1366307816063
 11
3983.7095827680932
 21
415.1366307816063
  0
LINE
  8
_f-f_
  6
CONTINUOUS
 62
    7
 10
3596.7095827680937
 20
398.1366307816063
 11
4007.7095827680932
 21
398.1366307816063
  0
LINE
  8
_f-f_
  6
CONTINUOUS
 62
    7
 10
3596.7095827680937
 20
399.13663078160641
 11
3620.7095827680932
 21
399.13663078160641
  0
LINE
  8
_f-f_
  6
CONTINUOUS
 62
    7
 10
3620.7095827680932
 20
415.1366307816063
 11
3620.7095827680932
 21
399.13663078160641
  0
LINE
  8
_f-f_
  6
CONTINUOUS
 62
    7
 10
3621.7095827680937
 20
415.1366307816063
 11
3621.7095827680937
 21
398.1366307816063
  0
LINE
  8
_f-f_
  6
CONTINUOUS
 62
    7
 10
3983.7095827680932
 20
415.1366307816063
 11
3983.7095827680932
 21
399.13663078160641
  0
LINE
  8
_f-f_
  6
CONTINUOUS
 62
    7
 10
4007.7095827680932
 20
399.13663078160641
 11
3983.7095827680932
 21
399.13663078160641
  0
LINE
  8
_f-f_
  6
CONTINUOUS
 62
    7
 10
3982.7095827680932
 20
415.1366307816063
 11
3982.7095827680932
 21
398.1366307816063
  0
LINE
  8
_f-f_
  6
CONTINUOUS
 62
    7
 10
3629.8095827680918
 20
527.13663078160653
 11
3974.6095827680947
 21
527.13663078160653
  0
LINE
  8
_f-f_
  6
CONTINUOUS
 62
    7
 10
3974.6095827680947
 20
527.13663070652228
 11
3974.6095827680947
 21
759.54498561683749
  0
LINE
  8
_f-f_
  6
CONTINUOUS
 62
    7
 10
3629.8095827683755
 20
667.13663078176819
 11
3594.8031942694688
 21
727.7547201962642
  0
LINE
  8
_f-f_
  6
CONTINUOUS
 62
    7
 10
3629.8095827680918
 20
527.13663078160653
 11
3629.8095827680918
 21
667.13663078160653
  0
LINE
  8
_f-f_
  6
CONTINUOUS
 62
    7
 10
3974.609582768066
 20
759.54498561682908
 11
3893.3905832688142
 21
900.18618812064324
  0
LINE
  8
_f-f_
  6
CONTINUOUS
 62
    7
 10
3595.1331236776505
 20
727.9452514729544
 11
3594.8031942694688
 21
727.7547201962642
  0
LINE
  8
_f-f_
  6
CONTINUOUS
 62
    7
 10
3974.6095827680947
 20
756.03505554180538
 11
3630.2122169023392
 21
663.73460893744993
  0
LINE
  8
_f-f_
  6
CONTINUOUS
 62
    7
 10
3628.1817194902146
 20
670.19058842083041
 11
3972.8641471209744
 21
762.56743319452062
  0
LINE
  8
_f-f_
  6
CONTINUOUS
 62
    7
 10
3629.8095827680918
 20
667.13663078161642
 11
3974.609582768066
 21
759.54498561682885
  0
POINT
  8
_0-3_âh__âÇ
 62
    7
 10
3594.8031942694688
 20
727.7547201962642
  0
LINE
  8
_0-3_âh__âÇ
  6
CONTINUOUS
 62
    7
 10
3744.2095827680937
 20
383.98965040049302
 11
3744.2095827680937
 21
349.50549494895438
  0
CIRCLE
  8
_0-3_âh__âÇ
  6
CONTINUOUS
 62
    7
 10
3802.2095827680937
 20
349.6854949489541
 40
4
  0
CIRCLE
  8
_0-3_âh__âÇ
  6
CONTINUOUS
 62
    7
 10
3744.2095827680937
 20
349.6854949489541
 40
4
  0
LINE
  8
_0-3_âh__âÇ
  6
CONTINUOUS
 62
    7
 10
3802.2095827680937
 20
349.6854949489541
 11
3744.2095827680937
 21
349.6854949489541
  0
TEXT
  8
_0-3_âh__âÇ
 62
    7
 10
3755.5625239445626
 20
349.77549494895425
 40
30.000000000000142
 41
1.1764705882352873
 50
0
  1
58
  0
LINE
  8
_0-3_âh__âÇ
  6
CONTINUOUS
 62
    7
 10
3533.6939983622324
 20
527.13663078160653
 11
3472.0096629517393
 21
527.13663078160653
  0
CIRCLE
  8
_0-3_âh__âÇ
  6
CONTINUOUS
 62
    7
 10
3472.1896629517396
 20
713.33663078160657
 40
4
  0
CIRCLE
  8
_0-3_âh__âÇ
  6
CONTINUOUS
 62
    7
 10
3472.1896629517396
 20
527.13663078160653
 40
4
  0
LINE
  8
_0-3_âh__âÇ
  6
CONTINUOUS
 62
    7
 10
3533.7564983622324
 20
813.9366307816066
 11
3472.0721629517398
 21
813.9366307816066
  0
LINE
  8
_0-3_âh__âÇ
  6
CONTINUOUS
 62
    7
 10
3533.6939983622324
 20
713.33663078160657
 11
3472.0721629517398
 21
713.33663078160657
  0
CIRCLE
  8
_0-3_âh__âÇ
  6
CONTINUOUS
 62
    7
 10
3472.25216295174
 20
813.9366307816066
 40
4
  0
CIRCLE
  8
_0-3_âh__âÇ
  6
CONTINUOUS
 62
    7
 10
3472.25216295174
 20
713.33663078160657
 40
4
  0
TEXT
  8
_0-3_âh__âÇ
 62
    7
 10
3472.0996629517435
 20
576.11898372278279
 40
30
 41
1.1764705882352942
 50
90
  1
186.2
  0
LINE
  8
_0-3_âh__âÇ
  6
CONTINUOUS
 62
    7
 10
3472.25216295174
 20
813.9366307816066
 11
3472.25216295174
 21
713.33663078160657
  0
TEXT
  8
_0-3_âh__âÇ
 62
    7
 10
3472.1621629517431
 20
719.51898372278333
 40
30
 41
1.1764705882352959
 50
90
  1
100.6
  0
CIRCLE
  8
_0-3_âh__âÇ
  6
CONTINUOUS
 62
    7
 10
3472.1896629517396
 20
398.1366307816063
 40
4
  0
LINE
  8
_0-3_âh__âÇ
  6
CONTINUOUS
 62
    7
 10
3472.1896629517396
 20
713.33663078160657
 11
3472.1896629517396
 21
398.1366307816063
  0
LINE
  8
_0-3_âh__âÇ
  6
CONTINUOUS
 62
    7
 10
3533.6939983622324
 20
398.1366307816063
 11
3472.1896629517396
 21
398.1366307816063
  0
TEXT
  8
_f-f_
 62
    7
 10
3472.1896629517396
 20
436.16604254631227
 40
30
 41
1.176470588235295
 50
90
  1
129
  0
LINE
  8
_f-f_
  6
CONTINUOUS
 62
    7
 10
2999.2095827680937
 20
530.1366307816063
 11
2999.2095827680937
 21
527.13663078160653
  0
LINE
  8
_f-f_
  6
CONTINUOUS
 62
    7
 10
2999.2095827680937
 20
530.1366307816063
 11
3002.2095827680932
 21
530.1366307816063
  0
LINE
  8
_f-f_
  6
CONTINUOUS
 62
    7
 10
2964.7095827680932
 20
406.1366307816063
 11
2965.7095827680932
 21
406.1366307816063
  0
LINE
  8
_f-f_
  6
CONTINUOUS
 62
    7
 10
2965.7095827680932
 20
400.13663078160647
 11
2965.7095827680932
 21
406.1366307816063
  0
ARC
  8
_f-f_
  6
CONTINUOUS
 62
    7
 10
2966.7095827680937
 20
400.13663078160647
 40
1
 50
180
 51
270
  0
ARC
  8
_f-f_
  6
CONTINUOUS
 62
    7
 10
2966.7095827680937
 20
400.13663078160647
 40
2
 50
180
 51
270
  0
LINE
  8
_f-f_
  6
CONTINUOUS
 62
    7
 10
2964.7095827680932
 20
400.13663078160647
 11
2964.7095827680932
 21
406.1366307816063
  0
LINE
  8
_f-f_
  6
CONTINUOUS
 62
    7
 10
3345.2095827680932
 20
530.1366307816063
 11
3345.2095827680932
 21
527.13663078160653
  0
LINE
  8
_f-f_
  6
CONTINUOUS
 62
    7
 10
3342.2095827680937
 20
530.1366307816063
 11
3345.2095827680932
 21
530.1366307816063
  0
LINE
  8
_f-f_
  6
CONTINUOUS
 62
    7
 10
3378.7095827680932
 20
406.1366307816063
 11
3379.7095827680937
 21
406.1366307816063
  0
LINE
  8
_f-f_
  6
CONTINUOUS
 62
    7
 10
3378.7095827680932
 20
400.13663078160647
 11
3378.7095827680932
 21
406.1366307816063
  0
ARC
  8
_f-f_
  6
CONTINUOUS
 62
    7
 10
3377.7095827680932
 20
400.13663078160647
 40
1
 50
270
 51
0
  0
ARC
  8
_f-f_
  6
CONTINUOUS
 62
    7
 10
3377.7095827680932
 20
400.13663078160647
 40
2
 50
270
 51
0
  0
LINE
  8
_f-f_
  6
CONTINUOUS
 62
    7
 10
3379.7095827680937
 20
406.1366307816063
 11
3379.7095827680937
 21
400.13663078160647
  0
LINE
  8
_f-f_
  6
CONTINUOUS
 62
    7
 10
2990.7095827680932
 20
415.1366307816063
 11
3353.7095827680932
 21
415.1366307816063
  0
LINE
  8
_f-f_
  6
CONTINUOUS
 62
    7
 10
2966.7095827680937
 20
398.1366307816063
 11
3377.7095827680932
 21
398.1366307816063
  0
LINE
  8
_f-f_
  6
CONTINUOUS
 62
    7
 10
2966.7095827680937
 20
399.13663078160641
 11
2990.7095827680932
 21
399.13663078160641
  0
LINE
  8
_f-f_
  6
CONTINUOUS
 62
    7
 10
2990.7095827680932
 20
415.1366307816063
 11
2990.7095827680932
 21
399.13663078160641
  0
LINE
  8
_f-f_
  6
CONTINUOUS
 62
    7
 10
2991.7095827680937
 20
415.1366307816063
 11
2991.7095827680937
 21
398.1366307816063
  0
LINE
  8
_f-f_
  6
CONTINUOUS
 62
    7
 10
3353.7095827680932
 20
415.1366307816063
 11
3353.7095827680932
 21
399.13663078160641
  0
LINE
  8
_f-f_
  6
CONTINUOUS
 62
    7
 10
3377.7095827680932
 20
399.13663078160641
 11
3353.7095827680932
 21
399.13663078160641
  0
LINE
  8
_f-f_
  6
CONTINUOUS
 62
    7
 10
3352.7095827680932
 20
415.1366307816063
 11
3352.7095827680932
 21
398.1366307816063
  0
LINE
  8
_f-f_
  6
CONTINUOUS
 62
    7
 10
2995.7095827680932
 20
527.13663078160653
 11
2991.7095827680937
 21
415.1366307816063
  0
LINE
  8
_f-f_
  6
CONTINUOUS
 62
    7
 10
2995.7095827680932
 20
527.13663078160653
 11
3348.7095827680932
 21
527.13663078160653
  0
LINE
  8
_f-f_
  6
CONTINUOUS
 62
    7
 10
3352.7095827680932
 20
415.1366307816063
 11
3348.7095827680932
 21
527.13663078160653
  0
LINE
  8
_f-f_
  6
CONTINUOUS
 62
    7
 10
2999.8095827680918
 20
527.13663078160653
 11
3344.6095827680947
 21
527.13663078160653
  0
LINE
  8
_f-f_
  6
CONTINUOUS
 62
    7
 10
3344.6095827680947
 20
527.13663070652228
 11
3344.6095827680947
 21
713.13663070652206
  0
LINE
  8
_f-f_
  6
CONTINUOUS
 62
    7
 10
2999.8095827680918
 20
667.72436594083513
 11
2969.5168569880157
 21
780.73071910725673
  0
LINE
  8
_f-f_
  6
CONTINUOUS
 62
    7
 10
2999.8095827680918
 20
527.13663078160653
 11
2999.8095827680918
 21
667.72436594083513
  0
LINE
  8
_f-f_
  6
CONTINUOUS
 62
    7
 10
3344.6095827680947
 20
713.13663070652206
 11
3302.5586753005155
 21
870.00662433988452
  0
LINE
  8
_f-f_
  6
CONTINUOUS
 62
    7
 10
2969.8848574473272
 20
780.82936617375196
 11
2969.5168569880157
 21
780.73071910725673
  0
LINE
  8
_f-f_
  6
CONTINUOUS
 62
    7
 10
3344.1514449604692
 20
709.65672856985509
 11
2999.8095827680918
 21
664.30480335025993
  0
LINE
  8
_f-f_
  6
CONTINUOUS
 62
    7
 10
2998.9291551220049
 20
671.00878208200197
 11
3343.2735881384401
 21
716.36104589497882
  0
LINE
  8
_f-f_
  6
CONTINUOUS
 62
    7
 10
2999.8095827680918
 20
667.7243659408889
 11
3344.6095827680947
 21
713.13663070652171
  0
POINT
  8
_0-3_âh__âÇ
 62
    7
 10
2969.5168569880157
 20
780.73071910725673
  0
LINE
  8
_0-3_âh__âÇ
  6
CONTINUOUS
 62
    7
 10
2903.6939983622256
 20
690.36867172129996
 11
2842.0096629517393
 21
690.36867172129996
  0
LINE
  8
_0-3_âh__âÇ
  6
CONTINUOUS
 62
    7
 10
2903.6939983622324
 20
527.06867172129944
 11
2842.0096629517393
 21
527.06867172129944
  0
CIRCLE
  8
_0-3_âh__âÇ
  6
CONTINUOUS
 62
    7
 10
2842.1896629517396
 20
690.36867172129996
 40
4
  0
CIRCLE
  8
_0-3_âh__âÇ
  6
CONTINUOUS
 62
    7
 10
2842.1896629517396
 20
527.06867172129944
 40
4
  0
LINE
  8
_0-3_âh__âÇ
  6
CONTINUOUS
 62
    7
 10
2903.7564983622324
 20
825.36867172130042
 11
2842.0721629517398
 21
825.36867172130042
  0
LINE
  8
_0-3_âh__âÇ
  6
CONTINUOUS
 62
    7
 10
2903.6939983622256
 20
690.36867172129996
 11
2842.0721629517398
 21
690.36867172129996
  0
CIRCLE
  8
_0-3_âh__âÇ
  6
CONTINUOUS
 62
    7
 10
2842.25216295174
 20
825.36867172130042
 40
4
  0
CIRCLE
  8
_0-3_âh__âÇ
  6
CONTINUOUS
 62
    7
 10
2842.25216295174
 20
690.36867172129996
 40
4
  0
TEXT
  8
_0-3_âh__âÇ
 62
    7
 10
2842.0996629517435
 20
564.60102466247588
 40
30
 41
1.1764705882352959
 50
90
  1
163.3
  0
LINE
  8
_0-3_âh__âÇ
  6
CONTINUOUS
 62
    7
 10
2842.25216295174
 20
825.36867172130042
 11
2842.25216295174
 21
690.36867172129996
  0
TEXT
  8
_0-3_âh__âÇ
 62
    7
 10
2842.1621629517431
 20
731.39808348600593
 40
30
 41
1.1764705882352919
 50
90
  1
135
  0
CIRCLE
  8
_0-3_âh__âÇ
  6
CONTINUOUS
 62
    7
 10
2842.1896629517396
 20
398.1366307816063
 40
4
  0
LINE
  8
_0-3_âh__âÇ
  6
CONTINUOUS
 62
    7
 10
2842.1896629517396
 20
690.36867172129996
 11
2842.1896629517396
 21
398.1366307816063
  0
LINE
  8
_0-3_âh__âÇ
  6
CONTINUOUS
 62
    7
 10
2903.6939983622324
 20
398.1366307816063
 11
2842.1896629517396
 21
398.1366307816063
  0
TEXT
  8
_f-f_
 62
    7
 10
2842.1896629517396
 20
436.16604254631227
 40
30
 41
1.176470588235295
 50
90
  1
129
  0
LINE
  8
_f-f_
  6
CONTINUOUS
 62
    7
 10
2323.1108064552936
 20
523.21480827873927
 11
2323.1108064552936
 21
520.21480827873927
  0
LINE
  8
_f-f_
  6
CONTINUOUS
 62
    7
 10
2323.1108064552936
 20
523.21480827873927
 11
2326.1108064552936
 21
523.21480827873927
  0
LINE
  8
_f-f_
  6
CONTINUOUS
 62
    7
 10
2288.6108064552936
 20
399.21480827873938
 11
2289.6108064552936
 21
399.21480827873938
  0
LINE
  8
_f-f_
  6
CONTINUOUS
 62
    7
 10
2289.6108064552936
 20
393.21480827873938
 11
2289.6108064552936
 21
399.21480827873938
  0
ARC
  8
_f-f_
  6
CONTINUOUS
 62
    7
 10
2290.6108064552936
 20
393.21480827873938
 40
1
 50
180
 51
270
  0
ARC
  8
_f-f_
  6
CONTINUOUS
 62
    7
 10
2290.6108064552936
 20
393.21480827873938
 40
2
 50
180
 51
270
  0
LINE
  8
_f-f_
  6
CONTINUOUS
 62
    7
 10
2288.6108064552936
 20
393.21480827873938
 11
2288.6108064552936
 21
399.21480827873938
  0
LINE
  8
_f-f_
  6
CONTINUOUS
 62
    7
 10
2669.1108064552936
 20
523.21480827873927
 11
2669.1108064552936
 21
520.21480827873927
  0
LINE
  8
_f-f_
  6
CONTINUOUS
 62
    7
 10
2666.1108064552941
 20
523.21480827873927
 11
2669.1108064552936
 21
523.21480827873927
  0
LINE
  8
_f-f_
  6
CONTINUOUS
 62
    7
 10
2702.6108064552936
 20
399.21480827873938
 11
2703.6108064552941
 21
399.21480827873938
  0
LINE
  8
_f-f_
  6
CONTINUOUS
 62
    7
 10
2702.6108064552936
 20
393.21480827873938
 11
2702.6108064552936
 21
399.21480827873938
  0
ARC
  8
_f-f_
  6
CONTINUOUS
 62
    7
 10
2701.6108064552941
 20
393.21480827873938
 40
1
 50
270
 51
0
  0
ARC
  8
_f-f_
  6
CONTINUOUS
 62
    7
 10
2701.6108064552941
 20
393.21480827873938
 40
2
 50
270
 51
0
  0
LINE
  8
_f-f_
  6
CONTINUOUS
 62
    7
 10
2703.6108064552941
 20
399.21480827873938
 11
2703.6108064552941
 21
393.21480827873938
  0
LINE
  8
_f-f_
  6
CONTINUOUS
 62
    7
 10
2314.6108064552936
 20
408.21480827873927
 11
2677.6108064552936
 21
408.21480827873927
  0
LINE
  8
_f-f_
  6
CONTINUOUS
 62
    7
 10
2290.6108064552936
 20
391.21480827873927
 11
2701.6108064552941
 21
391.21480827873927
  0
LINE
  8
_f-f_
  6
CONTINUOUS
 62
    7
 10
2290.6108064552936
 20
392.21480827873916
 11
2314.6108064552936
 21
392.21480827873916
  0
LINE
  8
_f-f_
  6
CONTINUOUS
 62
    7
 10
2314.6108064552936
 20
408.21480827873927
 11
2314.6108064552936
 21
392.21480827873916
  0
LINE
  8
_f-f_
  6
CONTINUOUS
 62
    7
 10
2315.6108064552936
 20
408.21480827873927
 11
2315.6108064552936
 21
391.21480827873927
  0
LINE
  8
_f-f_
  6
CONTINUOUS
 62
    7
 10
2677.6108064552936
 20
408.21480827873927
 11
2677.6108064552936
 21
392.21480827873916
  0
LINE
  8
_f-f_
  6
CONTINUOUS
 62
    7
 10
2701.6108064552941
 20
392.21480827873916
 11
2677.6108064552936
 21
392.21480827873916
  0
LINE
  8
_f-f_
  6
CONTINUOUS
 62
    7
 10
2676.6108064552936
 20
408.21480827873927
 11
2676.6108064552936
 21
391.21480827873927
  0
LINE
  8
_f-f_
  6
CONTINUOUS
 62
    7
 10
2319.6108064552936
 20
520.21480827873927
 11
2315.6108064552936
 21
408.21480827873927
  0
LINE
  8
_f-f_
  6
CONTINUOUS
 62
    7
 10
2319.6108064552936
 20
520.21480827873927
 11
2672.6108064552936
 21
520.21480827873927
  0
LINE
  8
_f-f_
  6
CONTINUOUS
 62
    7
 10
2676.6108064552941
 20
408.21480827873927
 11
2672.6108064552936
 21
520.21480827873927
  0
LINE
  8
_f-f_
  6
CONTINUOUS
 62
    7
 10
2323.7108064552926
 20
520.21480827873927
 11
2668.5108064552951
 21
520.21480827873927
  0
CIRCLE
  8
_0-4_òÂÄÜ
  6
CONTINUOUS
 62
    7
 10
2288.6108064552941
 20
458.62550737030148
 40
4
  0
LINE
  8
_0-4_òÂÄÜ
  6
CONTINUOUS
 62
    7
 10
2288.6108064552941
 20
426.09690624063535
 11
2288.6108064552941
 21
458.62550737030148
  0
CIRCLE
  8
_0-4_òÂÄÜ
  6
CONTINUOUS
 62
    7
 10
2703.6108064552941
 20
458.62550737030148
 40
4
  0
LINE
  8
_0-4_òÂÄÜ
  6
CONTINUOUS
 62
    7
 10
2288.6108064552941
 20
458.62550737030148
 11
2703.6108064552941
 21
458.62550737030148
  0
LINE
  8
_0-4_òÂÄÜ
  6
CONTINUOUS
 62
    7
 10
2703.6108064552941
 20
426.09690624063535
 11
2703.6108064552941
 21
458.62550737030148
  0
TEXT
  8
_0-4_òÂÄÜ
 62
    7
 10
2469.64021822
 20
458.62550737030131
 40
30.000000000000142
 41
1.1764705882352886
 50
0
  1
415
  0
LINE
  8
_f-f_
  6
CONTINUOUS
 62
    7
 10
2668.5108064552951
 20
741.73455699083786
 11
2323.9976300338712
 21
661.84195144067598
  0
LINE
  8
_f-f_
  6
CONTINUOUS
 62
    7
 10
2668.5108064552951
 20
748.67553011007431
 11
2323.4255923770656
 21
668.65026902740146
  0
LINE
  8
_f-f_
  6
CONTINUOUS
 62
    7
 10
2668.5108064556225
 20
745.21480820365514
 11
2323.7108064552995
 21
665.25568826559856
  0
LINE
  8
_0-3_âh__âÇ
  6
CONTINUOUS
 62
    7
 10
2323.6956124621902
 20
833.25239551619813
 11
2323.6956124621902
 21
896.14834028827818
  0
LINE
  8
_0-3_âh__âÇ
  6
CONTINUOUS
 62
    7
 10
2667.6956124621902
 20
833.25239551619813
 11
2667.6956124621902
 21
896.14834028827818
  0
CIRCLE
  8
_0-3_âh__âÇ
  6
CONTINUOUS
 62
    7
 10
2323.6956124621902
 20
895.96834028827834
 40
4
  0
CIRCLE
  8
_0-3_âh__âÇ
  6
CONTINUOUS
 62
    7
 10
2667.6956124621902
 20
895.96834028827834
 40
4
  0
LINE
  8
_0-3_âh__âÇ
  6
CONTINUOUS
 62
    7
 10
2323.6956124621902
 20
895.96834028827834
 11
2667.6956124621902
 21
895.96834028827834
  0
LINE
  8
_f-f_
  6
CONTINUOUS
 62
    7
 10
2323.7108064552995
 20
520.21480827873927
 11
2668.5108064552951
 21
520.21480827873927
  0
LINE
  8
_f-f_
  6
CONTINUOUS
 62
    7
 10
2323.7108064552995
 20
520.21480827873927
 11
2323.7108064552995
 21
820.21480827873927
  0
LINE
  8
_f-f_
  6
CONTINUOUS
 62
    7
 10
2668.5108064552951
 20
520.21480820365514
 11
2668.5108064552951
 21
820.21480820365514
  0
LINE
  8
_0-3_âh__âÇ
  6
CONTINUOUS
 62
    7
 10
2314.6108064552936
 20
399.21480827873938
 11
2194.6095827680947
 21
399.21480827873938
  0
LINE
  8
_0-3_âh__âÇ
  6
CONTINUOUS
 62
    7
 10
2797.6120301424999
 20
399.21480827873938
 11
2677.6108064552936
 21
399.21480827873938
  0
CIRCLE
  8
_0-3_âh__âÇ
  6
CONTINUOUS
 62
    7
 10
2214.2521337383478
 20
391.21480827873927
 40
4
  0
LINE
  8
_0-3_âh__âÇ
  6
CONTINUOUS
 62
    7
 10
2214.2521337383478
 20
820.21480820365514
 11
2214.2521337383478
 21
391.21480827873927
  0
LINE
  8
_0-3_âh__âÇ
  6
CONTINUOUS
 62
    7
 10
2275.756469148841
 20
391.21480827873927
 11
2214.2521337383478
 21
391.21480827873927
  0
TEXT
  8
_f-f_
 62
    7
 10
2214.2521337383478
 20
436.16604254631227
 40
29.999999999999982
 41
1.1764705882352957
 50
90
  1
129
  0
POINT
  8
_0-3_âh__âÇ
 62
    7
 10
2323.7108064552995
 20
820.21480820365514
  0
LINE
  8
_0-3_âh__âÇ
  6
CONTINUOUS
 62
    7
 10
2328.5752138718858
 20
806.499486636455
 11
2343.1733298147851
 21
781.21480812857089
  0
LINE
  8
_0-3_âh__âÇ
  6
CONTINUOUS
 62
    7
 10
2343.1733298147851
 20
781.21480812857089
 11
2410.1550413644763
 21
781.21480812857089
  0
TEXT
  8
_0-3_âh__âÇ
 62
    7
 10
2413.1550413644763
 20
770.44044630731673
 40
16.288411458333343
 41
1.1764705882352935
 50
0
  1
è¯ô_çCüf
  0
POINT
  8
_0-3_âh__âÇ
 62
    7
 10
2288.6108064552936
 20
399.21480827873938
  0
POINT
  8
_0-3_âh__âÇ
 62
    7
 10
2964.7095827680932
 20
406.1366307816063
  0
POINT
  8
_0-3_âh__âÇ
 62
    7
 10
3594.7095827680932
 20
406.1366307816063
  0
LINE
  8
_0-3_âh__âÇ
  6
CONTINUOUS
 62
    7
 10
2295.424119716904
 20
386.45882018707835
 11
2313.321978061781
 21
355.45882018707846
  0
LINE
  8
_0-3_âh__âÇ
  6
CONTINUOUS
 62
    7
 10
2313.321978061781
 20
355.45882018707846
 11
2367.4606757857773
 21
355.45882018707846
  0
TEXT
  8
_0-3_âh__âÇ
 62
    7
 10
2372.30368961148
 20
344.68445836582475
 40
16.288411458333201
 41
1.1764705882353037
 50
0
  1
è¯ô_çD
  0
TEXT
  8
_0-3_âh__âÇ
 62
    7
 10
2129.25356459045
 20
967.36166650951361
 40
33.954861111111114
 41
1.1764705882352942
 50
0
  1
üméTünâ{âgâÇâAâôâOâïâ`âàü[âu + ÿAîïâ{âbâNâX
  0
LINE
  8
_0-3_âh__âÇ
  6
CONTINUOUS
 62
    7
 10
3035.4037180680953
 20
1037.1296790610679
 11
3035.4037180680953
 21
949.12967906106769
  0
LINE
  8
_0-3_âh__âÇ
  6
CONTINUOUS
 62
    7
 10
3035.4037180680953
 20
949.12967906106769
 11
2122.6095827680952
 21
949.12967906106769
  0
TEXT
  8
_0-3_âh__âÇ
 62
    7
 10
2451.5779654033672
 20
896.05834028827849
 40
30
 41
1.1764705882352942
 50
0
  1
â│344
  0
LINE
  8
_0-3_âh__âÇ
  6
CENTER2
 62
    7
 10
2496.1108064552941
 20
341.42080642496285
 11
2496.1108064552941
 21
870.21458844561857
  0
LINE
  8
_0-3_âh__âÇ
  6
CENTER2
 62
    7
 10
3172.2095827680937
 20
690.43049832370559
 11
3121.4716885327766
 21
879.70710672493158
  0
LINE
  8
_0-3_âh__âÇ
  6
CENTER2
 62
    7
 10
3172.2095827680937
 20
350.13663078160647
 11
3172.2095827680937
 21
690.43049832370559
  0
LINE
  8
_0-3_âh__âÇ
  6
CENTER2
 62
    7
 10
3802.2095827680937
 20
349.50549494895438
 11
3802.2095827680937
 21
713.34080819919723
  0
LINE
  8
_0-3_âh__âÇ
  6
CENTER2
 62
    7
 10
3802.2095827680937
 20
713.34080819919723
 11
3724.2021275351326
 21
848.42080642496285
  0
LINE
  8
_f-f_
  6
DASHED1
 62
    7
 10
2323.7108064552995
 20
820.21480820365514
 11
2668.5108064552951
 21
820.21480820365514
  0
LINE
  8
_f-f_
  6
DASHED1
 62
    7
 10
3302.5586753017383
 20
870.00662433534558
 11
2969.5168569880157
 21
780.73071910725673
  0
LINE
  8
_f-f_
  6
DASHED1
 62
    7
 10
3893.3905832711644
 20
900.18618811657359
 11
3594.8031942694688
 21
727.7547201962642
  0
LINE
  8
_f-f_
  6
DASHED1
 62
    7
 10
2326.1108064552936
 20
570.21480827873927
 11
2326.1108064552936
 21
520.21480827873927
  0
LINE
  8
_f-f_
  6
DASHED1
 62
    7
 10
2326.1108064552936
 20
570.21480827873927
 11
2666.1108064552941
 21
570.21480827873927
  0
LINE
  8
_f-f_
  6
DASHED1
 62
    7
 10
2666.1108064552941
 20
570.21480827873927
 11
2666.1108064552941
 21
520.21480827873927
  0
LINE
  8
_f-f_
  6
DASHED1
 62
    7
 10
3002.2095827680932
 20
577.13663078160653
 11
3002.2095827680932
 21
527.13663078160653
  0
LINE
  8
_f-f_
  6
DASHED1
 62
    7
 10
3002.2095827680932
 20
577.13663078160653
 11
3342.2095827680937
 21
577.13663078160653
  0
LINE
  8
_f-f_
  6
DASHED1
 62
    7
 10
3342.2095827680937
 20
577.13663078160653
 11
3342.2095827680937
 21
527.13663078160653
  0
LINE
  8
_f-f_
  6
DASHED1
 62
    7
 10
3632.2095827680932
 20
577.13663078160653
 11
3632.2095827680932
 21
527.13663078160653
  0
LINE
  8
_f-f_
  6
DASHED1
 62
    7
 10
3632.2095827680932
 20
577.13663078160653
 11
3972.2095827680937
 21
577.13663078160653
  0
LINE
  8
_f-f_
  6
DASHED1
 62
    7
 10
3972.2095827680937
 20
577.13663078160653
 11
3972.2095827680937
 21
527.13663078160653
  0
LINE
  8
_0-3_âh__âÇ
  6
CONTINUOUS
 62
    7
 10
126.87811381540541
 20
948.988127557967
 11
126.87811381540541
 21
1708.9881275579671
  0
TEXT
  8
_0-3_âh__âÇ
 62
    7
 10
147.87811381540564
 20
1558.3616343620411
 40
21.828124999999989
 41
1.1764705882352937
 50
0
  1
ëäÆÀâ`âàü[âué═ïùùúé╔éµé┴é─òKùvé╚
  0
TEXT
  8
_0-3_âh__âÇ
 62
    7
 10
147.87811381540564
 20
1516.3616343620413
 40
21.828125
 41
1.1764705882352933
 50
0
  1
ÆÀé│é¥é»û{Éöé­é┬é╚éóé┼é¡é¥é│éóüB
  0
TEXT
  8
_0-3_âh__âÇ
 62
    7
 10
147.87811381540564
 20
1443.599134362041
 40
21.828125000000004
 41
1.176470588235293
 50
0
  1
ëäÆÀâ`âàü[âué═ÆÀé│é¬éSéOéOéìéìéã
  0
TEXT
  8
_0-3_âh__âÇ
 62
    7
 10
147.87811381540564
 20
1403.9532293118461
 40
21.828125
 41
1.1764705882352933
 50
0
  1
éUéOéOéìéìé¬éáéÞé▄éÀüB
  0
TEXT
  8
_0-3_âh__âÇ
 62
    7
 10
155.87811381539836
 20
1640.5992386690784
 40
33.954861111111079
 41
1.1764705882352953
 50
0
  1
üméSünëäÆÀâ`âàü[âu
  0
LINE
  8
_0-3_âh__âÇ
  6
CONTINUOUS
 62
    7
 10
126.87811381540541
 20
1708.9881275579671
 11
637.87811381540564
 21
1708.9881275579671
  0
LINE
  8
_0-3_âh__âÇ
  6
CONTINUOUS
 62
    7
 10
637.87811381540564
 20
1708.9881275579671
 11
637.87811381540564
 21
1624.9881275579671
  0
LINE
  8
_0-3_âh__âÇ
  6
CONTINUOUS
 62
    7
 10
637.87811381540564
 20
1624.9881275579671
 11
126.87811381540541
 21
1624.9881275579671
  0
LINE
  8
_0-3_âh__âÇ
  6
CONTINUOUS
 62
    7
 10
126.87811381540541
 20
1624.9881275579671
 11
126.87811381540541
 21
1708.9881275579671
  0
LINE
  8
_0-3_âh__âÇ
  6
CONTINUOUS
 62
    7
 10
622.24295088296572
 20
1020.9881484577778
 11
967.0733504791491
 21
1020.9881217562247
  0
LINE
  8
_0-3_âh__âÇ
  6
CONTINUOUS
 62
    7
 10
622.24295088296572
 20
1020.9881484577778
 11
622.24295088296572
 21
1420.9881484577772
  0
LINE
  8
_0-3_âh__âÇ
  6
CONTINUOUS
 62
    7
 10
967.0733504791491
 20
1020.9881484577778
 11
967.0733504791491
 21
1420.9881484577772
  0
LINE
  8
_0-3_âh__âÇ
  6
CONTINUOUS
 62
    7
 10
623.9153337848029
 20
1068.0101394924945
 11
639.50379105292029
 21
1041.0101394924945
  0
LINE
  8
_0-3_âh__âÇ
  6
CONTINUOUS
 62
    7
 10
639.50379105292029
 20
1041.0101394924945
 11
706.4855026026197
 21
1041.0101394924945
  0
TEXT
  8
_0-3_âh__âÇ
 62
    7
 10
709.48550260261925
 20
1030.2357776712404
 40
16.288411458333272
 41
1.1764705882352964
 50
0
  1
è¯ô_çC
  0
LINE
  8
_0-3_âh__âÇ
  6
CONTINUOUS
 62
    7
 10
630.60885468998379
 20
1425.181598364527
 11
659.37366049440584
 21
1463.181598364527
  0
LINE
  8
_0-3_âh__âÇ
  6
CONTINUOUS
 62
    7
 10
659.37366049440584
 20
1463.181598364527
 11
702.35537204410434
 21
1463.181598364527
  0
TEXT
  8
_0-3_âh__âÇ
 62
    7
 10
711.35537204410468
 20
1452.4072365432726
 40
16.288411458333332
 41
1.1764705882352919
 50
0
  1
è¯ô_çBüf
  0
LINE
  8
_0-3_âh__âÇ
  6
CONTINUOUS
 62
    7
 10
898.23752717240063
 20
1020.9881351069987
 11
892.87887041019644
 21
1040.9869144038735
  0
LINE
  8
_0-3_âh__âÇ
  6
CONTINUOUS
 62
    7
 10
892.87887041019644
 20
1040.9869144038735
 11
903.59618393460494
 21
1040.9869144038735
  0
LINE
  8
_0-3_âh__âÇ
  6
CONTINUOUS
 62
    7
 10
903.59618393460494
 20
1040.9869144038735
 11
898.23752717240063
 21
1020.9881351069987
  0
LINE
  8
_0-3_âh__âÇ
  6
CONTINUOUS
 62
    7
 10
898.23752717240063
 20
1420.9881484577772
 11
903.59618393460494
 21
1400.9893691609022
  0
LINE
  8
_0-3_âh__âÇ
  6
CONTINUOUS
 62
    7
 10
903.59618393460494
 20
1400.9893691609022
 11
892.87887041019644
 21
1400.9893691609022
  0
LINE
  8
_0-3_âh__âÇ
  6
CONTINUOUS
 62
    7
 10
892.87887041019644
 20
1400.9893691609022
 11
898.23752717240063
 21
1420.9881484577772
  0
LINE
  8
_0-3_âh__âÇ
  6
CONTINUOUS
 62
    7
 10
622.24295088296572
 20
1439.0257357703206
 11
622.24295088296572
 21
1501.9216805424003
  0
LINE
  8
_0-3_âh__âÇ
  6
CONTINUOUS
 62
    7
 10
966.24295088296572
 20
1439.0257357703206
 11
966.24295088296572
 21
1501.9216805424003
  0
CIRCLE
  8
_0-3_âh__âÇ
  6
CONTINUOUS
 62
    7
 10
622.24295088296572
 20
1501.7416805424004
 40
4
  0
CIRCLE
  8
_0-3_âh__âÇ
  6
CONTINUOUS
 62
    7
 10
966.24295088296572
 20
1501.7416805424004
 40
4
  0
LINE
  8
_0-3_âh__âÇ
  6
CONTINUOUS
 62
    7
 10
622.24295088296572
 20
1501.7416805424004
 11
966.24295088296572
 21
1501.7416805424004
  0
LINE
  8
_0-3_âh__âÇ
  6
CONTINUOUS
 62
    7
 10
1043.6764248362965
 20
1008.988127557967
 11
1043.6764248362965
 21
1608.9881275579671
  0
LINE
  8
_0-3_âh__âÇ
  6
CONTINUOUS
 62
    7
 10
1388.5068244324798
 20
1008.988127557967
 11
1388.5068244324798
 21
1608.9881275579671
  0
LINE
  8
_0-3_âh__âÇ
  6
CONTINUOUS
 62
    7
 10
1043.6764248362965
 20
1008.988127557967
 11
1388.5068244324798
 21
1008.988127557967
  0
LINE
  8
_0-3_âh__âÇ
  6
CONTINUOUS
 62
    7
 10
1319.6710011257314
 20
1008.9881409087409
 11
1314.3123443635272
 21
1028.9869202056159
  0
LINE
  8
_0-3_âh__âÇ
  6
CONTINUOUS
 62
    7
 10
1314.3123443635272
 20
1028.9869202056159
 11
1325.0296578879356
 21
1028.9869202056159
  0
LINE
  8
_0-3_âh__âÇ
  6
CONTINUOUS
 62
    7
 10
1325.0296578879356
 20
1028.9869202056159
 11
1319.6710011257314
 21
1008.9881409087409
  0
LINE
  8
_0-3_âh__âÇ
  6
CONTINUOUS
 62
    7
 10
1319.6710011257314
 20
1608.9881275579671
 11
1325.0296578879356
 21
1588.9893482610921
  0
LINE
  8
_0-3_âh__âÇ
  6
CONTINUOUS
 62
    7
 10
1325.0296578879356
 20
1588.9893482610921
 11
1314.3123443635272
 21
1588.9893482610921
  0
LINE
  8
_0-3_âh__âÇ
  6
CONTINUOUS
 62
    7
 10
1314.3123443635272
 20
1588.9893482610921
 11
1319.6710011257314
 21
1608.9881275579671
  0
LINE
  8
_0-3_âh__âÇ
  6
CONTINUOUS
 62
    7
 10
1043.6764248362965
 20
1622.072942225434
 11
1043.6764248362965
 21
1660.8049763254694
  0
LINE
  8
_0-3_âh__âÇ
  6
CONTINUOUS
 62
    7
 10
1387.6764248362965
 20
1622.072942225434
 11
1387.6764248362965
 21
1660.8049763254694
  0
CIRCLE
  8
_0-3_âh__âÇ
  6
CONTINUOUS
 62
    7
 10
1043.6764248362965
 20
1660.6249763254698
 40
4
  0
CIRCLE
  8
_0-3_âh__âÇ
  6
CONTINUOUS
 62
    7
 10
1387.6764248362965
 20
1660.6249763254698
 40
4
  0
LINE
  8
_0-3_âh__âÇ
  6
CONTINUOUS
 62
    7
 10
1043.6764248362965
 20
1660.6249763254698
 11
1387.6764248362965
 21
1660.6249763254698
  0
LINE
  8
_0-3_âh__âÇ
  6
CONTINUOUS
 62
    7
 10
126.87811381540541
 20
1708.9881275579671
 11
1467.2731181177123
 21
1708.9881275579671
  0
LINE
  8
_f-f_
  6
CONTINUOUS
 62
    7
 10
1467.2731181177123
 20
1708.9881275579671
 11
1467.2731181177123
 21
948.988127557967
  0
LINE
  8
_0-3_âh__âÇ
  6
CONTINUOUS
 62
    7
 10
1467.2731181177123
 20
948.988127557967
 11
126.87811381540541
 21
948.988127557967
  0
POINT
  8
_0-3_âh__âÇ
 62
    7
 10
1043.6764248362965
 20
1608.9881275579671
  0
POINT
  8
_0-3_âh__âÇ
 62
    7
 10
1043.6764248362965
 20
1058.9881275579669
  0
SOLID
  8
_0-3_âh__âÇ
  6
CONTINUOUS
 62
    8
 10
898.23752717240063
 20
1420.9881484577772
 11
903.59618393460494
 21
1400.9893691609022
 12
892.87887041019644
 22
1400.9893691609022
 13
892.87887041019644
 23
1400.9893691609022
  0
SOLID
  8
_0-3_âh__âÇ
  6
CONTINUOUS
 62
    8
 10
898.23752717240063
 20
1020.9881351069987
 11
892.87887041019644
 21
1040.9869144038735
 12
903.59618393460494
 22
1040.9869144038735
 13
903.59618393460494
 23
1040.9869144038735
  0
SOLID
  8
_0-3_âh__âÇ
  6
CONTINUOUS
 62
    8
 10
1319.6710011257314
 20
1008.9881409087409
 11
1314.3123443635272
 21
1028.9869202056159
 12
1325.0296578879356
 22
1028.9869202056159
 13
1325.0296578879356
 23
1028.9869202056159
  0
SOLID
  8
_0-3_âh__âÇ
  6
CONTINUOUS
 62
    8
 10
1319.6710011257314
 20
1608.9881275579671
 11
1325.0296578879356
 21
1588.9893482610921
 12
1314.3123443635272
 22
1588.9893482610921
 13
1314.3123443635272
 23
1588.9893482610921
  0
LINE
  8
_0-3_âh__âÇ
  6
CONTINUOUS
 62
    7
 10
898.23752717240063
 20
1040.9869144038735
 11
898.23752717240063
 21
1400.9893691609022
  0
LINE
  8
_0-3_âh__âÇ
  6
CONTINUOUS
 62
    7
 10
1319.6710011257314
 20
1028.9869202056159
 11
1319.6710011257314
 21
1588.9893482610921
  0
POINT
  8
_0-3_âh__âÇ
 62
    7
 10
622.24295088296572
 20
1420.9881484577772
  0
POINT
  8
_0-3_âh__âÇ
 62
    7
 10
622.24295088296572
 20
1070.9881484577772
  0
TEXT
  8
_0-3_âh__âÇ
 62
    7
 10
907.56733687441306
 20
1214.6493428894833
 40
27.147352430555571
 41
1.1764705882352893
 50
0
  1
400
  0
TEXT
  8
_0-3_âh__âÇ
 62
    7
 10
1327.9862714480464
 20
1206.8843493749305
 40
27.147352430555571
 41
1.1764705882352928
 50
0
  1
600
  0
LINE
  8
_0-3_âh__âÇ
  6
DASHED1
 62
    7
 10
622.24295088296572
 20
1420.9881484577772
 11
967.0733504791491
 21
1420.9881484577772
  0
LINE
  8
_0-3_âh__âÇ
  6
DASHED1
 62
    7
 10
622.24295088296572
 20
1070.9881484577772
 11
967.0733504791491
 21
1070.9881217562252
  0
LINE
  8
_0-3_âh__âÇ
  6
DASHED1
 62
    7
 10
1043.6764248362965
 20
1058.9881275579669
 11
1388.5068244324798
 21
1058.9881275579669
  0
LINE
  8
_0-3_âh__âÇ
  6
DASHED1
 62
    7
 10
1043.6764248362965
 20
1608.9881275579671
 11
1388.5068244324798
 21
1608.9881275579671
  0
TEXT
  8
_0-3_âh__âÇ
 62
    7
 10
750.12530382414297
 20
1501.8316805424006
 40
30
 41
1.1764705882352919
 50
0
  1
â│344
  0
TEXT
  8
_0-3_âh__âÇ
 62
    7
 10
1171.5587777774733
 20
1660.7149763254699
 40
30
 41
1.176470588235295
 50
0
  1
â│344
  0
LINE
  8
_0-3_âh__âÇ
  6
CONTINUOUS
 62
    7
 10
1495.0529192027943
 20
1709.9254939036166
 11
2093.6483644909067
 21
1709.9254939036166
  0
LINE
  8
_0-3_âh__âÇ
  6
CONTINUOUS
 62
    7
 10
2093.6483644909067
 20
1709.9254939036166
 11
2093.6483644909067
 21
949.9254939036166
  0
LINE
  8
_0-3_âh__âÇ
  6
CONTINUOUS
 62
    7
 10
2093.6483644909067
 20
949.9254939036166
 11
1495.0529192027943
 21
949.9254939036166
  0
LINE
  8
_0-3_âh__âÇ
  6
CONTINUOUS
 62
    7
 10
1495.0529192027943
 20
949.9254939036166
 11
1495.0529192027943
 21
1709.9254939036166
  0
TEXT
  8
_0-3_âh__âÇ
 62
    7
 10
1524.0529192027866
 20
1641.5366050147279
 40
33.954861111111114
 41
1.1764705882352944
 50
0
  1
âAâôâOâïâ`âàü[âu
  0
TEXT
  8
_0-3_âh__âÇ
 62
    7
 10
1522.0531144200547
 20
1578.2768149560925
 40
21.828125000000007
 41
1.1764705882352937
 50
0
  1
âIâvâVâçâôòié╔é═éOüïü`éXéOüïé╔Æ▓É«é┼é½éÚ
  0
TEXT
  8
_0-3_âh__âÇ
 62
    7
 10
1522.0531144200547
 20
1534.7149871723723
 40
21.828124999999989
 41
1.1764705882352948
 50
0
  1
âAâôâOâïâ`âàü[âuéÓéáéÞé▄éÀ
  0
LINE
  8
_0-3_âh__âÇ
  6
CONTINUOUS
 62
    7
 10
1495.0529192027943
 20
1709.9254939036166
 11
2093.6483644909067
 21
1709.9254939036166
  0
LINE
  8
_0-3_âh__âÇ
  6
CONTINUOUS
 62
    7
 10
2093.6483644909067
 20
1709.9254939036166
 11
2093.6483644909067
 21
1625.9254939036166
  0
LINE
  8
_0-3_âh__âÇ
  6
CONTINUOUS
 62
    7
 10
2093.6483644909067
 20
1625.9254939036166
 11
1495.0529192027943
 21
1625.9254939036166
  0
LINE
  8
_0-3_âh__âÇ
  6
CONTINUOUS
 62
    7
 10
1495.0529192027943
 20
1625.9254939036166
 11
1495.0529192027943
 21
1709.9254939036166
  0
LINE
  8
_f-f_
  6
CONTINUOUS
 62
    7
 10
1784.9379708109088
 20
1005.4584552587881
 11
2021.9379708109091
 21
1005.4584552587881
  0
LINE
  8
_f-f_
  6
CONTINUOUS
 62
    7
 10
1784.9379708109088
 20
1091.42426651242
 11
1784.9379708109088
 21
1005.4584552587881
  0
LINE
  8
_f-f_
  6
CONTINUOUS
 62
    7
 10
2021.9379708109091
 20
1154.9282251185948
 11
2021.9379708109091
 21
1005.4584552587881
  0
LINE
  8
_f-f_
  6
CONTINUOUS
 62
    7
 10
1784.9379708109088
 20
1099.7064759557002
 11
2021.9379708109091
 21
1163.2104345618757
  0
LINE
  8
_f-f_
  6
CONTINUOUS
 62
    7
 10
1784.9379708109088
 20
1091.42426651242
 11
2021.9379708109091
 21
1154.9282251185948
  0
ARC
  8
_f-f_
  6
CONTINUOUS
 62
    7
 10
1783.9026946304991
 20
1095.2879698175764
 40
3.9999999999996385
 50
104.99999999999444
 51
284.99999999999443
  0
LINE
  8
_f-f_
  6
CONTINUOUS
 62
    7
 10
1784.9379708109088
 20
1099.7064759557002
 11
1784.9379708109088
 21
1091.42426651242
  0
LINE
  8
_f-f_
  6
CONTINUOUS
 62
    7
 10
1784.9379708109088
 20
1099.7064759557002
 11
1782.8674184500894
 21
1099.1516731227316
  0
ARC
  8
_f-f_
  6
CONTINUOUS
 62
    7
 10
2022.9732469913188
 20
1159.3467312567193
 40
3.9999999999998597
 50
284.99999999999443
 51
104.99999999999449
  0
LINE
  8
_f-f_
  6
CONTINUOUS
 62
    7
 10
2021.9379708109091
 20
1163.210434561875
 11
2021.9379708109091
 21
1154.9282251185948
  0
LINE
  8
_f-f_
  6
CONTINUOUS
 62
    7
 10
2021.9379708109091
 20
1154.9282251185948
 11
2024.0085231717283
 21
1155.4830279515634
  0
LINE
  8
_f-f_
  6
CONTINUOUS
 62
    7
 10
2017.7968660891681
 20
1170.3830383395152
 11
1907.8270962288634
 21
1360.8562670330766
  0
LINE
  8
_f-f_
  6
CONTINUOUS
 62
    7
 10
1780.7968660893284
 20
1106.879079732727
 11
1734.3310548354902
 21
1187.3602256387999
  0
LINE
  8
_f-f_
  6
CONTINUOUS
 62
    7
 10
2021.937970810829
 20
1163.2104345621817
 11
1784.9379708109886
 21
1099.7064759553937
  0
ARC
  8
_f-f_
  6
CONTINUOUS
 62
    7
 10
2020.9026946304043
 20
1167.0741378673349
 40
3.9999999999999032
 50
285.00000000015416
 51
105.00000000015413
  0
LINE
  8
_f-f_
  6
CONTINUOUS
 62
    7
 10
2019.8674184499876
 20
1170.9378411724888
 11
1780.7968660893284
 21
1106.8790797327267
  0
ARC
  8
_f-f_
  6
CONTINUOUS
 62
    7
 10
1781.8321422697525
 20
1103.0153764275744
 40
3.9999999999998876
 50
105.0000000001541
 51
285.00000000015416
  0
LINE
  8
_f-f_
  6
CONTINUOUS
 62
    7
 10
2017.7968660891681
 20
1170.3830383395152
 11
2021.937970810829
 21
1163.2104345621817
  0
LINE
  8
_f-f_
  6
CONTINUOUS
 62
    7
 10
1780.7968660893284
 20
1106.8790797327276
 11
1784.9379708109886
 21
1099.7064759553937
  0
LINE
  8
_f-f_
  6
CONTINUOUS
 62
    7
 10
1784.9379708109886
 20
1099.7064759553948
 11
1782.8674184501692
 21
1099.1516731224217
  0
LINE
  8
_f-f_
  6
CONTINUOUS
 62
    7
 10
1903.6859915072096
 20
1368.0288708104092
 11
1730.1899501138364
 21
1194.5328294161327
  0
ARC
  8
_f-f_
  6
CONTINUOUS
 62
    7
 10
1906.5144186319567
 20
1365.2004436856714
 40
3.9999999999999032
 50
315.00000000014302
 51
135.00000000014302
  0
LINE
  8
_f-f_
  6
CONTINUOUS
 62
    7
 10
1909.3428457567106
 20
1362.3720165609329
 11
1734.3310548354902
 21
1187.3602256388008
  0
ARC
  8
_f-f_
  6
CONTINUOUS
 62
    7
 10
1731.5026277107363
 20
1190.1886527635388
 40
3.9999999999998876
 50
135.00000000014302
 51
315.00000000014307
  0
LINE
  8
_f-f_
  6
CONTINUOUS
 62
    7
 10
1907.8270962288634
 20
1360.8562670330773
 11
1903.6859915072096
 21
1368.0288708104092
  0
LINE
  8
_f-f_
  6
CONTINUOUS
 62
    7
 10
1734.3310548354902
 20
1187.3602256387999
 11
1730.1899501138364
 21
1194.5328294161327
  0
LINE
  8
_f-f_
  6
CONTINUOUS
 62
    7
 10
1730.1899501138364
 20
1194.5328294161325
 11
1728.6742005859896
 21
1193.0170798882759
  0
LINE
  8
_f-f_
  6
CONTINUOUS
 62
    7
 10
1706.040159036759
 20
1482.1397453920613
 11
1896.5133877306112
 21
1372.1699755322543
  0
LINE
  8
_f-f_
  6
CONTINUOUS
 62
    7
 10
1642.5362004305907
 20
1245.139745392057
 11
1723.0173463367873
 21
1198.673934138428
  0
LINE
  8
_f-f_
  6
CONTINUOUS
 62
    7
 10
1698.8675552594186
 20
1486.2808501137015
 11
1635.3635966532424
 21
1249.2808501136969
  0
ARC
  8
_f-f_
  6
CONTINUOUS
 62
    7
 10
1702.7312585645677
 20
1485.2455739332913
 40
3.9999999999999032
 50
344.9999999999954
 51
164.99999999999534
  0
LINE
  8
_f-f_
  6
CONTINUOUS
 62
    7
 10
1706.5949618697312
 20
1484.2102977528816
 11
1642.5362004305907
 21
1245.1397453920574
  0
ARC
  8
_f-f_
  6
CONTINUOUS
 62
    7
 10
1638.6724971254341
 20
1246.1750215724678
 40
3.9999999999998876
 50
164.99999999999534
 51
344.99999999999545
  0
LINE
  8
_f-f_
  6
CONTINUOUS
 62
    7
 10
1706.040159036759
 20
1482.1397453920613
 11
1698.8675552594186
 21
1486.2808501137015
  0
LINE
  8
_f-f_
  6
CONTINUOUS
 62
    7
 10
1642.5362004305907
 20
1245.1397453920576
 11
1635.3635966532424
 21
1249.2808501136969
  0
LINE
  8
_f-f_
  6
CONTINUOUS
 62
    7
 10
1635.3635966532499
 20
1249.2808501136974
 11
1634.8087938202777
 21
1247.2102977528771
  0
LINE
  8
_f-f_
  6
CONTINUOUS
 62
    7
 10
1903.6859915079522
 20
1368.0288708106148
 11
1730.1899501141279
 21
1194.5328294167891
  0
ARC
  8
_f-f_
  6
CONTINUOUS
 62
    7
 10
1900.857564383205
 20
1370.8572979353596
 40
3.9999999999999032
 50
315.00000000000648
 51
135.00000000000648
  0
LINE
  8
_f-f_
  6
CONTINUOUS
 62
    7
 10
1898.0291372584588
 20
1373.6857250601063
 11
1723.0173463367873
 21
1198.6739341384296
  0
ARC
  8
_f-f_
  6
CONTINUOUS
 62
    7
 10
1725.845773461534
 20
1195.8455070136829
 40
3.9999999999998876
 50
135.00000000000648
 51
315.00000000000648
  0
LINE
  8
_f-f_
  6
CONTINUOUS
 62
    7
 10
1896.5133877306112
 20
1372.1699755322538
 11
1903.6859915079522
 21
1368.0288708106148
  0
LINE
  8
_f-f_
  6
CONTINUOUS
 62
    7
 10
1723.0173463367873
 20
1198.6739341384291
 11
1730.1899501141279
 21
1194.5328294167891
  0
LINE
  8
_f-f_
  6
CONTINUOUS
 62
    7
 10
1730.1899501141279
 20
1194.5328294167896
 11
1728.6742005862732
 21
1193.0170798889371
  0
LINE
  8
_f-f_
  6
CONTINUOUS
 62
    7
 10
1553.1155759563308
 20
1249.2808501137004
 11
1553.1155759563308
 21
1486.2808501136992
  0
LINE
  8
_f-f_
  6
CONTINUOUS
 62
    7
 10
1627.0813872099652
 20
1249.2808501136992
 11
1553.1155759563308
 21
1249.2808501137004
  0
LINE
  8
_f-f_
  6
CONTINUOUS
 62
    7
 10
1690.5853458161409
 20
1486.2808501136965
 11
1553.1155759563308
 21
1486.2808501136992
  0
LINE
  8
_f-f_
  6
CONTINUOUS
 62
    7
 10
1635.3635966532424
 20
1249.2808501136985
 11
1698.8675552594186
 21
1486.2808501136965
  0
LINE
  8
_f-f_
  6
CONTINUOUS
 62
    7
 10
1627.0813872099652
 20
1249.2808501136992
 11
1690.5853458161409
 21
1486.2808501136965
  0
ARC
  8
_f-f_
  6
CONTINUOUS
 62
    7
 10
1630.9450905151216
 20
1248.2455739332888
 40
3.9999999999996385
 50
165.00000000000554
 51
345.00000000000557
  0
LINE
  8
_f-f_
  6
CONTINUOUS
 62
    7
 10
1635.3635966532424
 20
1249.2808501136985
 11
1627.0813872099652
 21
1249.2808501136985
  0
LINE
  8
_f-f_
  6
CONTINUOUS
 62
    7
 10
1635.3635966532424
 20
1249.2808501136985
 11
1634.8087938202777
 21
1247.210297752878
  0
ARC
  8
_f-f_
  6
CONTINUOUS
 62
    7
 10
1695.0038519542622
 20
1487.3161262941062
 40
3.9999999999998597
 50
345.00000000000557
 51
165.00000000000557
  0
LINE
  8
_f-f_
  6
CONTINUOUS
 62
    7
 10
1698.8675552594186
 20
1486.2808501136965
 11
1690.5853458161409
 21
1486.2808501136965
  0
LINE
  8
_f-f_
  6
CONTINUOUS
 62
    7
 10
1690.5853458161409
 20
1486.2808501136965
 11
1691.1401486491059
 21
1488.3514024745159
  0
LINE
  8
_0-3_âh__âÇ
  6
CONTINUOUS
 62
    7
 10
126.87811381540541
 20
914.31252841716037
 11
1991.8781138154054
 21
914.31252841716037
  0
LINE
  8
_0-3_âh__âÇ
  6
CONTINUOUS
 62
    7
 10
1991.8781138154054
 20
914.31252841716037
 11
1991.8781138154054
 21
264.31252841716031
  0
LINE
  8
_0-3_âh__âÇ
  6
CONTINUOUS
 62
    7
 10
1991.8781138154054
 20
264.31252841716031
 11
126.87811381540541
 21
264.31252841716031
  0
LINE
  8
_0-3_âh__âÇ
  6
CONTINUOUS
 62
    7
 10
126.87811381540541
 20
264.31252841716031
 11
126.87811381540541
 21
914.31252841716037
  0
LINE
  8
_0-3_âh__âÇ
  6
CONTINUOUS
 62
    7
 10
304.33514161832591
 20
520.6900736370992
 11
632.25007156973584
 21
596.78458481186181
  0
LINE
  8
_0-3_âh__âÇ
  6
CONTINUOUS
 62
    7
 10
632.25007156973584
 20
596.78458481186181
 11
639.4836426900556
 21
565.61287570172101
  0
LINE
  8
_0-3_âh__âÇ
  6
CONTINUOUS
 62
    7
 10
639.4836426900556
 20
565.61287570172101
 11
311.56871273864539
 21
489.51836452695801
  0
LINE
  8
_0-3_âh__âÇ
  6
CONTINUOUS
 62
    7
 10
311.56871273864539
 20
489.51836452695801
 11
304.33514161832591
 21
520.6900736370992
  0
TEXT
  8
_0-3_âh__âÇ
 62
    7
 10
352.57255825985084
 20
299.03475063938231
 40
27.147352430555571
 41
1.1764705882352939
 50
0
  1
èpôxéOüïé╠ÅÛìç
  0
TEXT
  8
_0-3_âh__âÇ
 62
    7
 10
1036.4058915931864
 20
299.03475063938231
 40
27.147352430555571
 41
1.1764705882352933
 50
0
  1
èpôxéPéTüïé╠ÅÛìç
  0
TEXT
  8
_0-3_âh__âÇ
 62
    7
 10
1659.5811569412881
 20
299.03475063938231
 40
27.147352430555571
 41
1.1764705882352937
 50
0
  1
èpôxéRéOüïé╠ÅÛìç
  0
LINE
  8
_f-f_
  6
CONTINUOUS
 62
    7
 10
302.04773661680974
 20
709.31250179069241
 11
302.04773661680974
 21
565.16552293555935
  0
LINE
  8
_f-f_
  6
CONTINUOUS
 62
    7
 10
646.87813040800847
 20
595.41452253120144
 11
646.87813040800847
 21
709.31250179069241
  0
LINE
  8
_f-f_
  6
CONTINUOUS
 62
    7
 10
302.0477308118177
 20
709.3125284922445
 11
302.0477308118177
 21
409.3125284922445
  0
LINE
  8
_f-f_
  6
CONTINUOUS
 62
    7
 10
646.87813040800847
 20
709.31250179069241
 11
646.87813040800847
 21
409.31250179069241
  0
LINE
  8
_f-f_
  6
CONTINUOUS
 62
    7
 10
302.0477308118177
 20
409.3125284922445
 11
646.87813040800847
 21
409.3125284922445
  0
LINE
  8
_f-f_
  6
CONTINUOUS
 62
    7
 10
568.35801370401646
 20
535.13122760290389
 11
568.41084436941742
 21
535.12987805680677
  0
LINE
  8
_f-f_
  6
CONTINUOUS
 62
    7
 10
647.16384366897273
 20
555.91798920622068
 11
302.0477308118177
 21
475.83184640603122
  0
LINE
  8
_f-f_
  6
CONTINUOUS
 62
    7
 10
646.59080043815356
 20
562.72622222941641
 11
302.0477308118177
 21
482.7730573468267
  0
LINE
  8
_f-f_
  6
CONTINUOUS
 62
    7
 10
646.87651588874473
 20
559.33168363041341
 11
302.0477308118177
 21
479.31221686411857
  0
LINE
  8
_0-3_âh__âÇ
  6
CONTINUOUS
 62
    7
 10
288.6315964612848
 20
709.31252849224302
 11
288.6315964612848
 21
678.01370045164731
  0
LINE
  8
_0-3_âh__âÇ
  6
CONTINUOUS
 62
    7
 10
288.6315964612848
 20
678.01370045164731
 11
273.07803151198186
 21
678.01370045164731
  0
LINE
  8
_0-3_âh__âÇ
  6
CONTINUOUS
 62
    7
 10
273.07803151198186
 20
678.01370045164731
 11
273.07803151198186
 21
692.01370045164731
  0
LINE
  8
_0-3_âh__âÇ
  6
CONTINUOUS
 62
    7
 10
273.07803151198186
 20
692.01370045164731
 11
280.59404586758063
 21
692.01370045164731
  0
LINE
  8
_0-3_âh__âÇ
  6
CONTINUOUS
 62
    7
 10
280.59404586758063
 20
692.01370045164731
 11
280.59404586758063
 21
680.55372568720009
  0
LINE
  8
_0-3_âh__âÇ
  6
CONTINUOUS
 62
    7
 10
280.59404586758063
 20
680.55372568720009
 11
286.13159646128508
 21
680.55372568720009
  0
LINE
  8
_0-3_âh__âÇ
  6
CONTINUOUS
 62
    7
 10
286.13159646128508
 20
680.55372568720009
 11
286.13159646128508
 21
711.85255372779568
  0
LINE
  8
_0-3_âh__âÇ
  6
CONTINUOUS
 62
    7
 10
286.13159646128508
 20
711.85255372779568
 11
305.29893465769874
 21
711.85255372779568
  0
LINE
  8
_0-3_âh__âÇ
  6
CONTINUOUS
 62
    7
 10
305.29893465769874
 20
711.85255372779568
 11
305.29893465769874
 21
683.2284327352877
  0
LINE
  8
_0-3_âh__âÇ
  6
CONTINUOUS
 62
    7
 10
305.29893465769874
 20
683.2284327352877
 11
302.0477308118177
 21
683.2284327352877
  0
LINE
  8
_0-3_âh__âÇ
  6
CONTINUOUS
 62
    7
 10
302.0477308118177
 20
683.2284327352877
 11
302.0477308118177
 21
709.31252849224302
  0
LINE
  8
_0-3_âh__âÇ
  6
CONTINUOUS
 62
    7
 10
302.0477308118177
 20
709.31252849224302
 11
288.6315964612848
 21
709.31252849224302
  0
LINE
  8
_0-3_âh__âÇ
  6
CONTINUOUS
 62
    7
 10
660.29426475854848
 20
709.31252849224302
 11
660.29426475854848
 21
678.01370045164731
  0
LINE
  8
_0-3_âh__âÇ
  6
CONTINUOUS
 62
    7
 10
660.29426475854848
 20
678.01370045164731
 11
675.84782970784431
 21
678.01370045164731
  0
LINE
  8
_0-3_âh__âÇ
  6
CONTINUOUS
 62
    7
 10
675.84782970784431
 20
678.01370045164731
 11
675.84782970784431
 21
692.01370045164731
  0
LINE
  8
_0-3_âh__âÇ
  6
CONTINUOUS
 62
    7
 10
675.84782970784431
 20
692.01370045164731
 11
668.33181535225322
 21
692.01370045164731
  0
LINE
  8
_0-3_âh__âÇ
  6
CONTINUOUS
 62
    7
 10
668.33181535225322
 20
692.01370045164731
 11
668.33181535225322
 21
680.55372568720009
  0
LINE
  8
_0-3_âh__âÇ
  6
CONTINUOUS
 62
    7
 10
668.33181535225322
 20
680.55372568720009
 11
662.79426475854871
 21
680.55372568720009
  0
LINE
  8
_0-3_âh__âÇ
  6
CONTINUOUS
 62
    7
 10
662.79426475854871
 20
680.55372568720009
 11
662.79426475854871
 21
711.85255372779568
  0
LINE
  8
_0-3_âh__âÇ
  6
CONTINUOUS
 62
    7
 10
662.79426475854871
 20
711.85255372779568
 11
643.62692656213483
 21
711.85255372779568
  0
LINE
  8
_0-3_âh__âÇ
  6
CONTINUOUS
 62
    7
 10
643.62692656213483
 20
711.85255372779568
 11
643.62692656213483
 21
683.2284327352877
  0
LINE
  8
_0-3_âh__âÇ
  6
CONTINUOUS
 62
    7
 10
643.62692656213483
 20
683.2284327352877
 11
646.87813040800847
 21
683.2284327352877
  0
LINE
  8
_0-3_âh__âÇ
  6
CONTINUOUS
 62
    7
 10
646.87813040800847
 20
683.2284327352877
 11
646.87813040800847
 21
709.31252849224302
  0
LINE
  8
_0-3_âh__âÇ
  6
CONTINUOUS
 62
    7
 10
646.87813040800847
 20
709.31252849224302
 11
660.29426475854848
 21
709.31252849224302
  0
LINE
  8
_0-3_âh__âÇ
  6
CONTINUOUS
 62
    7
 10
305.29893465769874
 20
711.85255372779568
 11
643.62692656213483
 21
711.85255372779568
  0
POINT
  8
_0-3_âh__âÇ
 62
    7
 10
286.13159646128508
 20
711.85255372779568
  0
POINT
  8
_0-3_âh__âÇ
 62
    7
 10
302.0477308118177
 20
459.3125284922445
  0
POINT
  8
_0-3_âh__âÇ
 62
    7
 10
295.33966363655509
 20
709.31252849224302
  0
LINE
  8
_f-f_
  6
CONTINUOUS
 62
    7
 10
961.06552269225085
 20
670.38284749969216
 11
1012.0477142192149
 21
480.11471843976324
  0
LINE
  8
_f-f_
  6
CONTINUOUS
 62
    7
 10
1294.1461044409125
 20
759.63154803721841
 11
1356.8781138154054
 21
525.51250179069211
  0
LINE
  8
_f-f_
  6
CONTINUOUS
 62
    7
 10
1012.0477142192149
 20
480.11471843976324
 11
1012.0477142192149
 21
409.3125284922445
  0
LINE
  8
_f-f_
  6
CONTINUOUS
 62
    7
 10
1356.8781138154054
 20
525.51250179069211
 11
1356.8781138154054
 21
409.31250179069241
  0
LINE
  8
_f-f_
  6
CONTINUOUS
 62
    7
 10
1012.0477142192149
 20
409.3125284922445
 11
1356.8781138154054
 21
409.3125284922445
  0
LINE
  8
_f-f_
  6
CONTINUOUS
 62
    7
 10
1081.9915623598908
 20
522.45915793243489
 11
1081.9408811439907
 21
522.44418078863555
  0
LINE
  8
_f-f_
  6
CONTINUOUS
 62
    7
 10
1356.4199356765575
 20
522.03227497181445
 11
1012.0477142192149
 21
476.69498312820537
  0
LINE
  8
_f-f_
  6
CONTINUOUS
 62
    7
 10
1011.1675990944614
 20
483.39935280187632
 11
1355.5427661402837
 21
528.73631004137235
  0
LINE
  8
_f-f_
  6
CONTINUOUS
 62
    7
 10
1012.0477142192149
 20
480.11487077145375
 11
1356.8784054493199
 21
525.51179772549506
  0
LINE
  8
_0-3_âh__âÇ
  6
CONTINUOUS
 62
    7
 10
1307.1050950990657
 20
763.10389911879065
 11
1315.2058278853556
 21
732.8715527817991
  0
LINE
  8
_0-3_âh__âÇ
  6
CONTINUOUS
 62
    7
 10
1315.2058278853556
 20
732.8715527817991
 11
1330.2294179607534
 21
736.89711160991692
  0
LINE
  8
_0-3_âh__âÇ
  6
CONTINUOUS
 62
    7
 10
1330.2294179607534
 20
736.89711160991692
 11
1326.6059513293192
 21
750.4200731779639
  0
LINE
  8
_0-3_âh__âÇ
  6
CONTINUOUS
 62
    7
 10
1326.6059513293192
 20
750.4200731779639
 11
1319.3460389524887
 21
748.47478551947188
  0
LINE
  8
_0-3_âh__âÇ
  6
CONTINUOUS
 62
    7
 10
1319.3460389524887
 20
748.47478551947188
 11
1322.3120986779222
 21
737.40529992587153
  0
LINE
  8
_0-3_âh__âÇ
  6
CONTINUOUS
 62
    7
 10
1322.3120986779222
 20
737.40529992587153
 11
1316.9632355450785
 21
735.97207636900123
  0
LINE
  8
_0-3_âh__âÇ
  6
CONTINUOUS
 62
    7
 10
1316.9632355450785
 20
735.97207636900123
 11
1308.8625027587814
 21
766.20442270599324
  0
LINE
  8
_0-3_âh__âÇ
  6
CONTINUOUS
 62
    7
 10
1308.8625027587814
 20
766.20442270599324
 11
1290.3482757736538
 21
761.24355053684087
  0
LINE
  8
_0-3_âh__âÇ
  6
CONTINUOUS
 62
    7
 10
1290.3482757736538
 20
761.24355053684087
 11
1297.7567434358325
 21
733.59477281535476
  0
LINE
  8
_0-3_âh__âÇ
  6
CONTINUOUS
 62
    7
 10
1297.7567434358325
 20
733.59477281535476
 11
1300.8971651970905
 21
734.43624629017768
  0
LINE
  8
_0-3_âh__âÇ
  6
CONTINUOUS
 62
    7
 10
1300.8971651970905
 20
734.43624629017768
 11
1294.1461044409125
 21
759.63154803721739
  0
LINE
  8
_0-3_âh__âÇ
  6
CONTINUOUS
 62
    7
 10
1294.1461044409125
 20
759.63154803721739
 11
1307.1050950990657
 21
763.10389911879065
  0
LINE
  8
_0-3_âh__âÇ
  6
CONTINUOUS
 62
    7
 10
948.10652512323315
 20
666.9105222098367
 11
956.20725790953031
 21
636.67817587284446
  0
LINE
  8
_0-3_âh__âÇ
  6
CONTINUOUS
 62
    7
 10
956.20725790953031
 20
636.67817587284446
 11
941.18366783413251
 21
632.6526170447255
  0
LINE
  8
_0-3_âh__âÇ
  6
CONTINUOUS
 62
    7
 10
941.18366783413251
 20
632.6526170447255
 11
937.56020120269852
 21
646.17557861277294
  0
LINE
  8
_0-3_âh__âÇ
  6
CONTINUOUS
 62
    7
 10
937.56020120269852
 20
646.17557861277294
 11
944.8201135795216
 21
648.12086627126519
  0
LINE
  8
_0-3_âh__âÇ
  6
CONTINUOUS
 62
    7
 10
944.8201135795216
 20
648.12086627126519
 11
947.78617330495479
 21
637.05138067766484
  0
LINE
  8
_0-3_âh__âÇ
  6
CONTINUOUS
 62
    7
 10
947.78617330495479
 20
637.05138067766484
 11
953.13503643780587
 21
638.48460423453491
  0
LINE
  8
_0-3_âh__âÇ
  6
CONTINUOUS
 62
    7
 10
953.13503643780587
 20
638.48460423453491
 11
945.03430365150848
 21
668.71695057152601
  0
LINE
  8
_0-3_âh__âÇ
  6
CONTINUOUS
 62
    7
 10
945.03430365150848
 20
668.71695057152601
 11
963.54853063663631
 21
673.67782274067849
  0
LINE
  8
_0-3_âh__âÇ
  6
CONTINUOUS
 62
    7
 10
963.54853063663631
 20
673.67782274067849
 11
970.95699829881482
 21
646.02904501919193
  0
LINE
  8
_0-3_âh__âÇ
  6
CONTINUOUS
 62
    7
 10
970.95699829881482
 20
646.02904501919193
 11
967.81657653755701
 21
645.18757154436935
  0
LINE
  8
_0-3_âh__âÇ
  6
CONTINUOUS
 62
    7
 10
967.81657653755701
 20
645.18757154436935
 11
961.06551578137896
 21
670.3828732914094
  0
LINE
  8
_0-3_âh__âÇ
  6
CONTINUOUS
 62
    7
 10
961.06551578137896
 20
670.3828732914094
 11
948.10652512323315
 21
666.9105222098367
  0
LINE
  8
_0-3_âh__âÇ
  6
CONTINUOUS
 62
    7
 10
1290.3482757736538
 20
761.24355053684087
 11
963.54853063663631
 21
673.67782274067849
  0
POINT
  8
_0-3_âh__âÇ
 62
    7
 10
1012.0477142192149
 20
459.3125284922445
  0
POINT
  8
_0-3_âh__âÇ
 62
    7
 10
945.03430365150848
 20
668.71695057152601
  0
POINT
  8
_0-3_âh__âÇ
 62
    7
 10
954.58602045230975
 20
668.64669775062293
  0
LINE
  8
_f-f_
  6
CONTINUOUS
 62
    7
 10
1517.0573051390793
 20
609.19941547129383
 11
1592.0477142192149
 21
479.31221686411857
  0
LINE
  8
_f-f_
  6
CONTINUOUS
 62
    7
 10
1815.6891778357431
 20
781.61463839361159
 11
1936.8781138154054
 21
571.70924396159444
  0
LINE
  8
_f-f_
  6
CONTINUOUS
 62
    7
 10
1592.0477142192149
 20
479.31221686411857
 11
1592.0477142192149
 21
409.3125284922445
  0
LINE
  8
_f-f_
  6
CONTINUOUS
 62
    7
 10
1936.8781138154054
 20
571.7092439616182
 11
1936.8781138154054
 21
409.31250179069241
  0
LINE
  8
_f-f_
  6
CONTINUOUS
 62
    7
 10
1592.0477142192149
 20
409.3125284922445
 11
1936.8781138154054
 21
409.3125284922445
  0
LINE
  8
_f-f_
  6
CONTINUOUS
 62
    7
 10
1672.1483580067479
 20
497.61406551312177
 11
1672.1032800814619
 21
497.58648143921818
  0
LINE
  8
_f-f_
  6
CONTINUOUS
 62
    7
 10
1936.8781138154054
 20
568.19898671778049
 11
1592.1652265379282
 21
475.8338794145975
  0
LINE
  8
_f-f_
  6
CONTINUOUS
 62
    7
 10
1590.7042265887112
 20
482.44284962722446
 11
1935.1334008697786
 21
574.73117542805039
  0
LINE
  8
_f-f_
  6
CONTINUOUS
 62
    7
 10
1592.0491124339214
 20
479.31302412375288
 11
1936.8784948528528
 21
571.70858398537757
  0
LINE
  8
_0-3_âh__âÇ
  6
CONTINUOUS
 62
    7
 10
1827.3078910038867
 20
788.32270556887863
 11
1842.9573050241861
 21
761.21712537704207
  0
LINE
  8
_0-3_âh__âÇ
  6
CONTINUOUS
 62
    7
 10
1842.9573050241861
 20
761.21712537704207
 11
1856.427087389694
 21
768.99390785169373
  0
LINE
  8
_0-3_âh__âÇ
  6
CONTINUOUS
 62
    7
 10
1856.427087389694
 20
768.99390785169373
 11
1849.427087389694
 21
781.11826350467538
  0
LINE
  8
_0-3_âh__âÇ
  6
CONTINUOUS
 62
    7
 10
1849.427087389694
 20
781.11826350467538
 11
1842.9180280225455
 21
777.36025632687824
  0
LINE
  8
_0-3_âh__âÇ
  6
CONTINUOUS
 62
    7
 10
1842.9180280225455
 20
777.36025632687824
 11
1848.6480154047649
 21
767.43562705413808
  0
LINE
  8
_0-3_âh__âÇ
  6
CONTINUOUS
 62
    7
 10
1848.6480154047649
 20
767.43562705413808
 11
1843.8523559158684
 21
764.66685175728401
  0
LINE
  8
_0-3_âh__âÇ
  6
CONTINUOUS
 62
    7
 10
1843.8523559158684
 20
764.66685175728401
 11
1828.202941895569
 21
791.7724319491208
  0
LINE
  8
_0-3_âh__âÇ
  6
CONTINUOUS
 62
    7
 10
1828.202941895569
 20
791.7724319491208
 11
1811.603540094552
 21
782.1887628509154
  0
LINE
  8
_0-3_âh__âÇ
  6
CONTINUOUS
 62
    7
 10
1811.603540094552
 20
782.1887628509154
 11
1825.9156005908053
 21
757.39954691040441
  0
LINE
  8
_0-3_âh__âÇ
  6
CONTINUOUS
 62
    7
 10
1825.9156005908053
 20
757.39954691040441
 11
1828.7312257142157
 21
759.02514883334118
  0
LINE
  8
_0-3_âh__âÇ
  6
CONTINUOUS
 62
    7
 10
1828.7312257142157
 20
759.02514883334118
 11
1815.6891778357431
 21
781.61463839361022
  0
LINE
  8
_0-3_âh__âÇ
  6
CONTINUOUS
 62
    7
 10
1815.6891778357431
 20
781.61463839361022
 11
1827.3078910038867
 21
788.32270556887863
  0
LINE
  8
_0-3_âh__âÇ
  6
CONTINUOUS
 62
    7
 10
1505.4385786201499
 20
602.49137142024665
 11
1521.0879926404493
 21
575.3857912284102
  0
LINE
  8
_0-3_âh__âÇ
  6
CONTINUOUS
 62
    7
 10
1521.0879926404493
 20
575.3857912284102
 11
1507.6182102749417
 21
567.60900875375819
  0
LINE
  8
_0-3_âh__âÇ
  6
CONTINUOUS
 62
    7
 10
1507.6182102749417
 20
567.60900875375819
 11
1500.6182102749417
 21
579.73336440674029
  0
LINE
  8
_0-3_âh__âÇ
  6
CONTINUOUS
 62
    7
 10
1500.6182102749417
 20
579.73336440674029
 11
1507.1272696420976
 21
583.49137158453891
  0
LINE
  8
_0-3_âh__âÇ
  6
CONTINUOUS
 62
    7
 10
1507.1272696420976
 20
583.49137158453891
 11
1512.8572570243168
 21
573.56674231179841
  0
LINE
  8
_0-3_âh__âÇ
  6
CONTINUOUS
 62
    7
 10
1512.8572570243168
 20
573.56674231179841
 11
1517.6529165132133
 21
576.33551760865248
  0
LINE
  8
_0-3_âh__âÇ
  6
CONTINUOUS
 62
    7
 10
1517.6529165132133
 20
576.33551760865248
 11
1502.0035024929139
 21
603.44109780048848
  0
LINE
  8
_0-3_âh__âÇ
  6
CONTINUOUS
 62
    7
 10
1502.0035024929139
 20
603.44109780048848
 11
1518.6029042939381
 21
613.02476689869445
  0
LINE
  8
_0-3_âh__âÇ
  6
CONTINUOUS
 62
    7
 10
1518.6029042939381
 20
613.02476689869445
 11
1532.9149647901913
 21
588.23555095818301
  0
LINE
  8
_0-3_âh__âÇ
  6
CONTINUOUS
 62
    7
 10
1532.9149647901913
 20
588.23555095818301
 11
1530.0993396667809
 21
586.60994903524579
  0
LINE
  8
_0-3_âh__âÇ
  6
CONTINUOUS
 62
    7
 10
1530.0993396667809
 20
586.60994903524579
 11
1517.057291788301
 21
609.19943859551495
  0
LINE
  8
_0-3_âh__âÇ
  6
CONTINUOUS
 62
    7
 10
1517.057291788301
 20
609.19943859551495
 11
1505.4385786201499
 21
602.49137142024665
  0
LINE
  8
_0-3_âh__âÇ
  6
CONTINUOUS
 62
    7
 10
1811.603540094552
 20
782.1887628509154
 11
1518.6029042939381
 21
613.02476689869445
  0
POINT
  8
_0-3_âh__âÇ
 62
    7
 10
1592.0477142192149
 20
459.3125284922445
  0
POINT
  8
_0-3_âh__âÇ
 62
    7
 10
1502.0035024929139
 20
603.44109780048848
  0
POINT
  8
_0-3_âh__âÇ
 62
    7
 10
1511.2479352042255
 20
605.84540500788091
  0
LINE
  8
_0-3_âh__âÇ
  6
CONTINUOUS
 62
    7
 10
287.8401091810565
 20
714.16178433082553
 11
316.60491498548538
 21
752.16178433082541
  0
LINE
  8
_0-3_âh__âÇ
  6
CONTINUOUS
 62
    7
 10
316.60491498548538
 20
752.16178433082541
 11
359.58662653517706
 21
752.16178433082541
  0
TEXT
  8
_0-3_âh__âÇ
 62
    7
 10
368.58662653517683
 20
741.38742250957171
 40
16.288411458333201
 41
1.1764705882353057
 50
0
  1
è¯ô_ç@üf
  0
LINE
  8
_0-3_âh__âÇ
  6
CONTINUOUS
 62
    7
 10
295.52560194251896
 20
704.60487288112972
 11
311.11405921063579
 21
677.60487288112984
  0
LINE
  8
_0-3_âh__âÇ
  6
CONTINUOUS
 62
    7
 10
311.11405921063579
 20
677.60487288112984
 11
378.09577076033491
 21
677.60487288112984
  0
TEXT
  8
_0-3_âh__âÇ
 62
    7
 10
381.09577076033474
 20
666.83051105987579
 40
16.288411458333343
 41
1.1764705882352913
 50
0
  1
è¯ô_çAüf
  0
LINE
  8
_0-3_âh__âÇ
  6
CONTINUOUS
 62
    7
 10
304.77560194251851
 20
455.31252841716025
 11
320.36405921063562
 21
428.31252841716008
  0
LINE
  8
_0-3_âh__âÇ
  6
CONTINUOUS
 62
    7
 10
320.36405921063562
 20
428.31252841716008
 11
387.34577076033474
 21
428.31252841716008
  0
TEXT
  8
_0-3_âh__âÇ
 62
    7
 10
390.34577076033486
 20
417.53816659590626
 40
16.288411458333343
 41
1.1764705882352935
 50
0
  1
è¯ô_çB
  0
TEXT
  8
_0-3_âh__âÇ
 62
    7
 10
146.87811381540541
 20
849.20269571963149
 40
33.954861111111043
 41
1.1764705882352964
 50
0
  1
üméRünâgâbâvâAâôâOâïâ`âàü[âu
  0
LINE
  8
_0-3_âh__âÇ
  6
CONTINUOUS
 62
    7
 10
126.87811381540541
 20
914.31252841716037
 11
819.87811381540553
 21
914.31252841716037
  0
LINE
  8
_0-3_âh__âÇ
  6
CONTINUOUS
 62
    7
 10
819.87811381540553
 20
914.31252841716037
 11
819.87811381540553
 21
837.31252841716014
  0
LINE
  8
_0-3_âh__âÇ
  6
CONTINUOUS
 62
    7
 10
819.87811381540553
 20
837.31252841716014
 11
126.87811381540541
 21
837.31252841716014
  0
LINE
  8
_0-3_âh__âÇ
  6
CONTINUOUS
 62
    7
 10
126.87811381540541
 20
837.31252841716014
 11
126.87811381540541
 21
914.31252841716037
  0
LINE
  8
_0-3_âh__âÇ
  6
CONTINUOUS
 62
    7
 10
302.04773661680974
 20
729.8901410403389
 11
302.04773661680974
 21
792.78608581241872
  0
LINE
  8
_0-3_âh__âÇ
  6
CONTINUOUS
 62
    7
 10
646.04773661680952
 20
729.8901410403389
 11
646.04773661680952
 21
792.78608581241872
  0
CIRCLE
  8
_0-3_âh__âÇ
  6
CONTINUOUS
 62
    7
 10
302.04773661680974
 20
792.60608581241877
 40
4
  0
CIRCLE
  8
_0-3_âh__âÇ
  6
CONTINUOUS
 62
    7
 10
646.04773661680952
 20
792.60608581241877
 40
4
  0
LINE
  8
_0-3_âh__âÇ
  6
CONTINUOUS
 62
    7
 10
676.459970309651
 20
711.85255372779523
 11
738.14430572014408
 21
711.85255372779523
  0
LINE
  8
_0-3_âh__âÇ
  6
CONTINUOUS
 62
    7
 10
676.459970309651
 20
409.3125284922445
 11
738.14430572014408
 21
409.3125284922445
  0
CIRCLE
  8
_0-3_âh__âÇ
  6
CONTINUOUS
 62
    7
 10
737.96430572014378
 20
711.85255372779523
 40
4
  0
CIRCLE
  8
_0-3_âh__âÇ
  6
CONTINUOUS
 62
    7
 10
737.96430572014378
 20
409.3125284922445
 40
4
  0
LINE
  8
_0-3_âh__âÇ
  6
CONTINUOUS
 62
    7
 10
915.9321298133483
 20
502.81252849224444
 11
854.24779440285511
 21
502.81252849224444
  0
LINE
  8
_0-3_âh__âÇ
  6
CONTINUOUS
 62
    7
 10
915.9321298133483
 20
409.3125284922445
 11
854.24779440285511
 21
409.3125284922445
  0
CIRCLE
  8
_0-3_âh__âÇ
  6
CONTINUOUS
 62
    7
 10
854.4277944028554
 20
502.81252849224444
 40
4
  0
CIRCLE
  8
_0-3_âh__âÇ
  6
CONTINUOUS
 62
    7
 10
854.4277944028554
 20
409.3125284922445
 40
4
  0
LINE
  8
_0-3_âh__âÇ
  6
CONTINUOUS
 62
    7
 10
915.99462981334818
 20
717.41252849224441
 11
854.31029440285499
 21
717.41252849224441
  0
LINE
  8
_0-3_âh__âÇ
  6
CONTINUOUS
 62
    7
 10
915.99462981334818
 20
502.81252849224444
 11
854.31029440285499
 21
502.81252849224444
  0
CIRCLE
  8
_0-3_âh__âÇ
  6
CONTINUOUS
 62
    7
 10
854.49029440285528
 20
717.41252849224441
 40
4
  0
CIRCLE
  8
_0-3_âh__âÇ
  6
CONTINUOUS
 62
    7
 10
854.49029440285528
 20
502.81252849224444
 40
4
  0
LINE
  8
_0-3_âh__âÇ
  6
CONTINUOUS
 62
    7
 10
1495.9321298133555
 20
525.5125284922442
 11
1434.2477944028622
 21
525.5125284922442
  0
LINE
  8
_0-3_âh__âÇ
  6
CONTINUOUS
 62
    7
 10
1495.9321298133555
 20
409.31252849224393
 11
1434.2477944028622
 21
409.31252849224393
  0
CIRCLE
  8
_0-3_âh__âÇ
  6
CONTINUOUS
 62
    7
 10
1434.4277944028624
 20
525.5125284922442
 40
4
  0
CIRCLE
  8
_0-3_âh__âÇ
  6
CONTINUOUS
 62
    7
 10
1434.4277944028624
 20
409.31252849224393
 40
4
  0
LINE
  8
_0-3_âh__âÇ
  6
CONTINUOUS
 62
    7
 10
1495.9946298133555
 20
697.61252849224422
 11
1434.3102944028624
 21
697.61252849224422
  0
LINE
  8
_0-3_âh__âÇ
  6
CONTINUOUS
 62
    7
 10
1495.9321298133555
 20
525.5125284922442
 11
1434.3102944028624
 21
525.5125284922442
  0
CIRCLE
  8
_0-3_âh__âÇ
  6
CONTINUOUS
 62
    7
 10
1434.4902944028627
 20
697.61252849224422
 40
4
  0
CIRCLE
  8
_0-3_âh__âÇ
  6
CONTINUOUS
 62
    7
 10
1434.4902944028627
 20
525.5125284922442
 40
4
  0
LINE
  8
_0-3_âh__âÇ
  6
CONTINUOUS
 62
    7
 10
1184.4629140173101
 20
396.88137239268968
 11
1184.4629140173101
 21
362.39721694115133
  0
LINE
  8
_0-3_âh__âÇ
  6
CONTINUOUS
 62
    7
 10
1126.9629140173101
 20
396.88137239268968
 11
1126.9629140173101
 21
362.39721694115133
  0
CIRCLE
  8
_0-3_âh__âÇ
  6
CONTINUOUS
 62
    7
 10
1184.4629140173101
 20
362.57721694115133
 40
4
  0
CIRCLE
  8
_0-3_âh__âÇ
  6
CONTINUOUS
 62
    7
 10
1126.9629140173101
 20
362.57721694115133
 40
4
  0
LINE
  8
_0-3_âh__âÇ
  6
CONTINUOUS
 62
    7
 10
1764.4629140173101
 20
396.88137239268968
 11
1764.4629140173101
 21
362.39721694115133
  0
LINE
  8
_0-3_âh__âÇ
  6
CONTINUOUS
 62
    7
 10
1665.0629140173087
 20
396.88137239268968
 11
1665.0629140173087
 21
362.39721694115133
  0
CIRCLE
  8
_0-3_âh__âÇ
  6
CONTINUOUS
 62
    7
 10
1764.4629140173101
 20
362.57721694115133
 40
4
  0
CIRCLE
  8
_0-3_âh__âÇ
  6
CONTINUOUS
 62
    7
 10
1665.0629140173087
 20
362.57721694115133
 40
4
  0
LINE
  8
_0-3_âh__âÇ
  6
CONTINUOUS
 62
    7
 10
302.04773661680974
 20
792.60608581241877
 11
646.04773661680952
 21
792.60608581241877
  0
LINE
  8
_0-3_âh__âÇ
  6
CONTINUOUS
 62
    7
 10
737.96430572014378
 20
711.85255372779523
 11
737.96430572014378
 21
409.3125284922445
  0
TEXT
  8
_0-3_âh__âÇ
 62
    7
 10
737.87430572014728
 20
516.46489405119621
 40
30
 41
1.1764705882352942
 50
90
  1
302.5
  0
LINE
  8
_0-3_âh__âÇ
  6
CONTINUOUS
 62
    7
 10
854.4277944028554
 20
502.81252849224444
 11
854.4277944028554
 21
409.3125284922445
  0
TEXT
  8
_0-3_âh__âÇ
 62
    7
 10
854.33779440285889
 20
420.76841084518537
 40
30.000000000000284
 41
1.1764705882352824
 50
90
  1
93.5
  0
LINE
  8
_0-3_âh__âÇ
  6
CONTINUOUS
 62
    7
 10
854.49029440285528
 20
717.41252849224441
 11
854.49029440285528
 21
502.81252849224444
  0
TEXT
  8
_0-3_âh__âÇ
 62
    7
 10
854.40029440285889
 20
565.99488143342114
 40
30
 41
1.1764705882352942
 50
90
  1
214.6
  0
LINE
  8
_0-3_âh__âÇ
  6
CONTINUOUS
 62
    7
 10
1434.4277944028624
 20
525.5125284922442
 11
1434.4277944028624
 21
409.31252849224393
  0
TEXT
  8
_0-3_âh__âÇ
 62
    7
 10
1434.3377944028662
 20
423.29488143342047
 40
30.000000000000142
 41
1.1764705882352886
 50
90
  1
116.2
  0
LINE
  8
_0-3_âh__âÇ
  6
CONTINUOUS
 62
    7
 10
1434.4902944028627
 20
697.61252849224422
 11
1434.4902944028627
 21
525.5125284922442
  0
TEXT
  8
_0-3_âh__âÇ
 62
    7
 10
1434.4002944028662
 20
567.44488143342096
 40
30.000000000000142
 41
1.1764705882352886
 50
90
  1
172.1
  0
LINE
  8
_0-3_âh__âÇ
  6
CONTINUOUS
 62
    7
 10
1184.4629140173101
 20
362.57721694115133
 11
1126.9629140173101
 21
362.57721694115133
  0
TEXT
  8
_0-3_âh__âÇ
 62
    7
 10
1120.4187963702543
 20
365.49280019179605
 40
30.000000000000142
 41
1.1764705882352882
 50
0
  1
57.5
  0
LINE
  8
_0-3_âh__âÇ
  6
CONTINUOUS
 62
    7
 10
1764.4629140173101
 20
362.57721694115133
 11
1665.0629140173087
 21
362.57721694115133
  0
TEXT
  8
_0-3_âh__âÇ
 62
    7
 10
1679.4687963702575
 20
362.66721694115148
 40
30
 41
1.1764705882352933
 50
0
  1
99.4
  0
TEXT
  8
_0-3_âh__âÇ
 62
    7
 10
333.80912415388252
 20
499.4746260982073
 40
24.432617187499872
 41
1.1764705882353013
 50
13.064576530000059
  1
ë±ô]Ä®ì¦É┌æ▒0üïü`ü@30üï
  0
TEXT
  8
_0-3_âh__âÇ
 62
    7
 10
429.930089557987
 20
792.69608581241891
 40
30
 41
1.1764705882352942
 50
0
  1
â│344
  0
LINE
  8
_0-3_âh__âÇ
  6
DASHED1
 62
    7
 10
302.0477308118177
 20
459.3125284922445
 11
646.87813040800847
 21
459.3125284922445
  0
LINE
  8
_0-3_âh__âÇ
  6
DASHED1
 62
    7
 10
1012.0477142192149
 20
459.3125284922445
 11
1356.8781138154054
 21
459.3125284922445
  0
LINE
  8
_0-3_âh__âÇ
  6
DASHED1
 62
    7
 10
1592.0477142192149
 20
459.3125284922445
 11
1936.8781138154054
 21
459.3125284922445
  0
LINE
  8
_0-3_âh__âÇ
  6
CENTER2
 62
    7
 10
474.46293060991309
 20
774.31252841716014
 11
474.46293060991309
 21
348.31252841716025
  0
LINE
  8
_0-3_âh__âÇ
  6
CENTER2
 62
    7
 10
1184.4629140173101
 20
502.81331505168612
 11
1115.4759398380675
 21
760.27656166923589
  0
LINE
  8
_0-3_âh__âÇ
  6
CENTER2
 62
    7
 10
1764.4638036433871
 20
525.51080405456514
 11
1644.7507977990435
 21
732.85786727608001
  0
LINE
  8
_0-3_âh__âÇ
  6
CENTER2
 62
    7
 10
1184.4629140173101
 20
372.31252841716025
 11
1184.4629140173101
 21
502.81331505168612
  0
LINE
  8
_0-3_âh__âÇ
  6
CENTER2
 62
    7
 10
1764.4629140173101
 20
373.31252841716025
 11
1764.4629140173101
 21
525.51056568305944
  0
TEXT
  8
_0-3_âh__âÇ
 62
    7
 10
132.28125336918026
 20
2662.3514147615087
 40
21.828125000000114
 41
1.1764705882352877
 50
0
  1
ëEÉ}é╠üuö[é▄éÞÄûùßüvé­ÄQìlé╔éÁé─üméPünü`üméUüné╠
  0
TEXT
  8
_0-3_âh__âÇ
 62
    7
 10
132.28125336918026
 20
2616.3514147615092
 40
21.828124999999972
 41
1.176470588235295
 50
0
  1
òöòié­é┬é╚é¼ìçéÝé╣é─é▓Ägùpé¡é¥é│éóüB
  0
TEXT
  8
_0-3_âh__âÇ
 62
    7
 10
132.28125336918026
 20
2536.3514147615087
 40
21.828124999999972
 41
1.176470588235295
 50
0
  1
òöòiûêé╔üuè¯ô_üvé¬É¦ÆÞé│éÛé─éóé▄éÀüB
  0
TEXT
  8
_0-3_âh__âÇ
 62
    7
 10
132.28125336918026
 20
2494.3514147615087
 40
21.828125000000114
 41
1.1764705882352877
 50
0
  1
òöòié­ÿAîïéÀéÚì█é╔é═ç@éãç@üfüAçAéãçAüf
  0
TEXT
  8
_0-3_âh__âÇ
 62
    7
 10
132.28125336918026
 20
2448.3514147615087
 40
21.828125000000114
 41
1.1764705882352879
 50
0
  1
é╠éµéñé╔è¯ô_é­ìçéÝé╣é─é¡é¥é│éóüB
  0
TEXT
  8
_0-3_âh__âÇ
 62
    7
 10
134.29300862643572
 20
2361.4442860812796
 40
21.828124999999972
 41
1.1764705882352955
 50
0
  1
é▄é¢âgâbâvâAâôâOâïâ`âàü[âuüAâ{âgâÇâAâôâOâï
  0
TEXT
  8
_0-3_âh__âÇ
 62
    7
 10
134.29300862643572
 20
2320.4476006828645
 40
21.828125000000114
 41
1.1764705882352877
 50
0
  1
â`âàü[âué═èpôxé­Æ▓É▀é┼é½éÚéµéñé╔é╚é┴é─é¿éÞüA
  0
TEXT
  8
_0-3_âh__âÇ
 62
    7
 10
134.29300862643572
 20
2278.4476006828645
 40
21.828125000000114
 41
1.1764705882352877
 50
0
  1
ë±ô]é│é╣éÚé▒éãé╔éµé┴é─èpôxé¬éOüïé®éþéRéOüï
  0
TEXT
  8
_0-3_âh__âÇ
 62
    7
 10
134.29300862643572
 20
2228.3384291492566
 40
21.828125000000114
 41
1.1764705882352871
 50
0
  1
é▄é┼ï╚é░éÚé▒éãé¬é┼é½é▄éÀüB
  0
TEXT
  8
_0-3_âh__âÇ
 62
    7
 10
134.29300862643572
 20
2180.3384291492566
 40
21.828125000000114
 41
1.1764705882352879
 50
0
  1
î╗ÅÛé╔ìçéÝé╣é─ò¤ìXéÁé─é¡é¥é│éóüB
  0
TEXT
  8
_0-3_âh__âÇ
 62
    7
 10
148.58616930628045
 20
2026.8174720188431
 40
23.71840375675653
 41
1.1764705882352933
 50
0
  1
ü@éÓé╠é═üméPünüDüméRünüDüméTünéãé╚éÞé▄éÀüB
  0
TEXT
  8
_0-3_âh__âÇ
 62
    7
 10
135.06998399051781
 20
1969.3055488340751
 40
24.253472222222285
 41
1.1764705882352913
 50
0
  1
üªÄµòté╔é═üAâIâvâVâçâôòié╠üméQünüDüméUün
  0
TEXT
  8
_0-3_âh__âÇ
 62
    7
 10
135.06998399051781
 20
1927.9626748287476
 40
24.253472222222214
 41
1.1764705882352942
 50
0
  1
ü@é¬òKùvéãé╚éÞé▄éÀ
  0
TEXT
  8
_0-3_âh__âÇ
 62
    7
 10
135.06998399051781
 20
1881.6053324338418
 40
24.253472222222285
 41
1.1764705882352908
 50
0
  1
üªâ`âàü[âtüJé­ëäÆÀéÁé¢éóÅÛìçé═üméSüné╠
  0
TEXT
  8
_0-3_âh__âÇ
 62
    7
 10
135.06998399051781
 20
1840.2624584285145
 40
24.253472222222214
 41
1.1764705882352946
 50
0
  1
ü@ëäÆÀâ`âàü[âtüJé­î╗ÅÛé╔ë×éÂé─é¿æIéÐ
  0
TEXT
  8
_0-3_âh__âÇ
 62
    7
 10
135.06998399051781
 20
1801.4006683625041
 40
24.253472222222214
 41
1.1764705882352955
 50
0
  1
ü@é¡é¥é│éóüB
  0
LINE
  8
_f-f_
  6
CONTINUOUS
 62
    7
 10
934.71384870507836
 20
2005.7654147615085
 11
934.71385978340766
 21
2022.4455204000265
  0
LINE
  8
_f-f_
  6
CONTINUOUS
 62
    7
 10
934.00265449755761
 20
2014.5789928426534
 11
934.00264870508056
 21
2022.4455178554335
  0
LINE
  8
_f-f_
  6
CONTINUOUS
 62
    7
 10
934.00264870508056
 20
2005.7654147615085
 11
934.00265213143814
 21
2014.8713297119016
  0
LINE
  8
_f-f_
  6
CONTINUOUS
 62
    7
 10
795.93591567890201
 20
1875.4126147615091
 11
898.33954956094612
 21
1875.4126147615091
  0
ARC
  8
_f-f_
  6
CONTINUOUS
 62
    7
 10
898.33954956094612
 20
1888.1126147615089
 40
12.699999999999818
 50
270
 51
349.05323095438007
  0
LINE
  8
_f-f_
  6
CONTINUOUS
 62
    7
 10
910.80846076621174
 20
1885.7009237872535
 11
933.97491804971128
 21
2005.4760118445981
  0
ARC
  8
_f-f_
  6
CONTINUOUS
 62
    7
 10
932.47864870508283
 20
2005.7654147615085
 40
1.5240000000009515
 50
349.05323095438308
 51
0.0000000000000254
  0
ARC
  8
_f-f_
  6
CONTINUOUS
 62
    7
 10
932.47864870508283
 20
2005.7654147615085
 40
2.2352000000009635
 50
349.05323095439132
 51
0.000000000000027
  0
LINE
  8
_f-f_
  6
CONTINUOUS
 62
    7
 10
911.50671979370475
 20
1885.5658690926957
 11
934.67317707720429
 21
2005.3409571500399
  0
ARC
  8
_f-f_
  6
CONTINUOUS
 62
    7
 10
898.33954956094612
 20
1888.1126147615089
 40
13.41120000000001
 50
270
 51
349.05323095438501
  0
LINE
  8
_f-f_
  6
CONTINUOUS
 62
    7
 10
795.93591567890201
 20
1874.7014147615087
 11
898.33954956094612
 21
1874.7014147615087
  0
LINE
  8
_f-f_
  6
CONTINUOUS
 62
    7
 10
937.812648705078
 20
2027.1014147615087
 11
937.812648705078
 21
2026.3732482331454
  0
ARC
  8
_f-f_
  6
CONTINUOUS
 62
    7
 10
938.75244870507811
 20
2022.4455178554335
 40
4.0386000000001276
 50
103.45634369373681
 51
180
  0
ARC
  8
_f-f_
  6
CONTINUOUS
 62
    7
 10
938.75244870507811
 20
2022.4455178554335
 40
4.749800000000322
 50
101.41190174381416
 51
180
  0
LINE
  8
_0-3_âh__âÇ
  6
CONTINUOUS
 62
    7
 10
795.93591567890201
 20
1875.4126147615091
 11
795.93591567890201
 21
1874.7014147615087
  0
LINE
  8
_f-f_
  6
CONTINUOUS
 62
    7
 10
1299.1579826518014
 20
2005.7654147615085
 11
1299.1579715734792
 21
2022.4455204000265
  0
LINE
  8
_f-f_
  6
CONTINUOUS
 62
    7
 10
1299.8691768593221
 20
2014.5789928426534
 11
1299.8691826517993
 21
2022.4455178554335
  0
LINE
  8
_f-f_
  6
CONTINUOUS
 62
    7
 10
1299.8691826517993
 20
2005.7654147615085
 11
1299.8691792254419
 21
2014.8713297119016
  0
LINE
  8
_f-f_
  6
CONTINUOUS
 62
    7
 10
1437.7734156789033
 20
1875.4126147615091
 11
1335.5322817959336
 21
1875.4126147615091
  0
ARC
  8
_f-f_
  6
CONTINUOUS
 62
    7
 10
1335.5322817959336
 20
1888.1126147615089
 40
12.699999999998798
 50
190.94676904561996
 51
270
  0
LINE
  8
_f-f_
  6
CONTINUOUS
 62
    7
 10
1323.0633705906753
 20
1885.7009237872535
 11
1299.8969133071755
 21
2005.4760118445981
  0
ARC
  8
_f-f_
  6
CONTINUOUS
 62
    7
 10
1301.3931826518042
 20
2005.7654147615085
 40
1.5240000000012515
 50
180
 51
190.9467690456168
  0
ARC
  8
_f-f_
  6
CONTINUOUS
 62
    7
 10
1301.3931826518042
 20
2005.7654147615085
 40
2.2352000000009866
 50
180
 51
190.94676904560868
  0
LINE
  8
_f-f_
  6
CONTINUOUS
 62
    7
 10
1322.3651115631753
 20
1885.5658690926957
 11
1299.1986542796753
 21
2005.3409571500399
  0
ARC
  8
_f-f_
  6
CONTINUOUS
 62
    7
 10
1335.5322817959336
 20
1888.1126147615089
 40
13.411200000000509
 50
190.94676904561501
 51
270
  0
LINE
  8
_f-f_
  6
CONTINUOUS
 62
    7
 10
1437.7734156789033
 20
1874.7014147615087
 11
1335.5322817959336
 21
1874.7014147615087
  0
LINE
  8
_f-f_
  6
CONTINUOUS
 62
    7
 10
1296.0591826518016
 20
2027.1014147615087
 11
1296.0591826518016
 21
2026.3732482331454
  0
ARC
  8
_f-f_
  6
CONTINUOUS
 62
    7
 10
1295.1193826518015
 20
2022.4455178554335
 40
4.0385999999998603
 50
0
 51
76.543656306263188
  0
ARC
  8
_f-f_
  6
CONTINUOUS
 62
    7
 10
1295.1193826518015
 20
2022.4455178554335
 40
4.7497999999995955
 50
0
 51
78.588098256186257
  0
LINE
  8
_0-3_âh__âÇ
  6
CONTINUOUS
 62
    7
 10
1437.7734156789033
 20
1875.4126147615091
 11
1437.7734156789033
 21
1874.7014147615087
  0
POINT
  8
_0-3_âh__âÇ
 62
    7
 10
889.75461352151842
 20
2027.1014147615087
  0
LINE
  8
_0-3_âh__âÇ
  6
CONTINUOUS
 62
    7
 10
747.31183546925081
 20
2262.1014147615087
 11
2300.311835469251
 21
2262.1014147615087
  0
LINE
  8
_0-3_âh__âÇ
  6
CONTINUOUS
 62
    7
 10
2300.311835469251
 20
2262.1014147615087
 11
2300.311835469251
 21
1752.1014147615087
  0
LINE
  8
_0-3_âh__âÇ
  6
CONTINUOUS
 62
    7
 10
2300.311835469251
 20
1752.1014147615087
 11
747.31183546925081
 21
1752.1014147615087
  0
LINE
  8
_0-3_âh__âÇ
  6
CONTINUOUS
 62
    7
 10
747.31183546925081
 20
1752.1014147615087
 11
747.31183546925081
 21
2262.1014147615087
  0
TEXT
  8
_0-3_âh__âÇ
 62
    7
 10
782.31183546925081
 20
2193.2125258726201
 40
33.954861111111114
 41
1.1764705882352937
 50
0
  1
üméQünâïü[âtâxü[âX
  0
LINE
  8
_0-3_âh__âÇ
  6
CONTINUOUS
 62
    7
 10
747.31183546925081
 20
2262.1014147615087
 11
1156.311835469251
 21
2262.1014147615087
  0
LINE
  8
_0-3_âh__âÇ
  6
CONTINUOUS
 62
    7
 10
1156.311835469251
 20
2262.1014147615087
 11
1156.311835469251
 21
2187.7125258726201
  0
LINE
  8
_0-3_âh__âÇ
  6
CONTINUOUS
 62
    7
 10
1156.311835469251
 20
2187.7125258726201
 11
747.31183546925081
 21
2187.7125258726201
  0
LINE
  8
_0-3_âh__âÇ
  6
CONTINUOUS
 62
    7
 10
747.31183546925081
 20
2187.7125258726201
 11
747.31183546925081
 21
2262.1014147615087
  0
LINE
  8
_0-3_âh__âÇ
  6
CONTINUOUS
 62
    7
 10
941.05617388997996
 20
2032.703299240892
 11
969.82097969440144
 21
2070.7032992408917
  0
LINE
  8
_0-3_âh__âÇ
  6
CONTINUOUS
 62
    7
 10
969.82097969440144
 20
2070.7032992408917
 11
1012.8026912441005
 21
2070.7032992408917
  0
TEXT
  8
_0-3_âh__âÇ
 62
    7
 10
1021.8026912441006
 20
2059.9289374196378
 40
16.288411458333272
 41
1.1764705882352999
 50
0
  1
è¯ô_çA
  0
LINE
  8
_0-3_âh__âÇ
  6
CONTINUOUS
 62
    7
 10
1446.2780558543693
 20
1874.7014147615087
 11
1491.6642455269489
 21
1874.7014147615087
  0
LINE
  8
_0-3_âh__âÇ
  6
CONTINUOUS
 62
    7
 10
1446.2780558543693
 20
2026.7014147615091
 11
1491.6642455269489
 21
2026.7014147615091
  0
CIRCLE
  8
_0-3_âh__âÇ
  6
CONTINUOUS
 62
    7
 10
1491.4842455269486
 20
1874.7014147615087
 40
4
  0
CIRCLE
  8
_0-3_âh__âÇ
  6
CONTINUOUS
 62
    7
 10
1491.4842455269486
 20
2026.7014147615091
 40
4
  0
LINE
  8
_0-3_âh__âÇ
  6
CONTINUOUS
 62
    7
 10
795.93591567890201
 20
1851.415388865626
 11
795.93591567890201
 21
1804.7349121871166
  0
LINE
  8
_0-3_âh__âÇ
  6
CONTINUOUS
 62
    7
 10
1437.9359156789019
 20
1851.415388865626
 11
1437.9359156789019
 21
1804.7349121871166
  0
CIRCLE
  8
_0-3_âh__âÇ
  6
CONTINUOUS
 62
    7
 10
795.93591567890201
 20
1804.9149121871164
 40
4
  0
CIRCLE
  8
_0-3_âh__âÇ
  6
CONTINUOUS
 62
    7
 10
1437.9359156789019
 20
1804.9149121871164
 40
4
  0
CIRCLE
  8
_0-3_âh__âÇ
  6
CONTINUOUS
 62
    7
 10
2274.5973072507572
 20
1874.2013247385398
 40
4
  0
LINE
  8
_0-3_âh__âÇ
  6
CONTINUOUS
 62
    7
 10
1527.9883765601141
 20
1851.4152988426574
 11
1527.9883765601141
 21
1804.734822164148
  0
LINE
  8
_0-3_âh__âÇ
  6
CONTINUOUS
 62
    7
 10
2222.9883765601139
 20
1851.4152988426574
 11
2222.9883765601139
 21
1804.734822164148
  0
CIRCLE
  8
_0-3_âh__âÇ
  6
CONTINUOUS
 62
    7
 10
1527.9883765601141
 20
1804.9148221641476
 40
4
  0
CIRCLE
  8
_0-3_âh__âÇ
  6
CONTINUOUS
 62
    7
 10
2222.9883765601139
 20
1804.9148221641476
 40
4
  0
LINE
  8
_0-3_âh__âÇ
  6
CONTINUOUS
 62
    7
 10
1491.4842455269486
 20
1874.7014147615087
 11
1491.4842455269486
 21
2026.7014147615091
  0
TEXT
  8
_0-3_âh__âÇ
 62
    7
 10
1491.3942455269523
 20
1924.230826526215
 40
30.000000000000142
 41
1.1764705882352877
 50
90
  1
152
  0
LINE
  8
_0-3_âh__âÇ
  6
CONTINUOUS
 62
    7
 10
795.93591567890201
 20
1804.9149121871164
 11
1437.9359156789019
 21
1804.9149121871164
  0
TEXT
  8
_0-3_âh__âÇ
 62
    7
 10
1094.6804855662799
 20
1807.7508052409883
 40
30
 41
1.1764705882352924
 50
0
  1
642
  0
LINE
  8
_0-3_âh__âÇ
  6
CONTINUOUS
 62
    7
 10
1527.9883765601141
 20
1804.9148221641476
 11
2222.9883765601139
 21
1804.9148221641476
  0
TEXT
  8
_0-3_âh__âÇ
 62
    7
 10
1851.0795932323476
 20
1806.290517324182
 40
29.999999999999929
 41
1.1764705882352962
 50
0
  1
695
  0
TEXT
  8
_0-3_âh__âÇ
 62
    7
 10
1629.311835469251
 20
2114.6585850584866
 40
24.28550059238674
 41
1.1764705882352922
 50
0
  1
üªùñë«ì¬ùp
  0
CIRCLE
  8
_0-3_âh__âÇ
  6
CONTINUOUS
 62
    7
 10
2274.5973072507572
 20
1976.7014147615096
 40
4
  0
CIRCLE
  8
_0-4_òÂÄÜ
  6
CONTINUOUS
 62
    7
 10
2274.5973072507572
 20
1976.7014147615089
 40
4
  0
LINE
  8
_0-3_âh__âÇ
  6
CONTINUOUS
 62
    7
 10
2227.4724232719186
 20
1976.7014147617692
 11
2274.7773072507575
 21
1976.7014147617692
  0
LINE
  8
_0-3_âh__âÇ
  6
CONTINUOUS
 62
    7
 10
2229.3911175781782
 20
1874.2013247385398
 11
2274.5973072507572
 21
1874.2013247385398
  0
TEXT
  8
_0-3_âh__âÇ
 62
    7
 10
2274.5973072507572
 20
1898.9807815148606
 40
30
 41
1.176470588235295
 50
90
  1
102
  0
LINE
  8
_0-3_âh__âÇ
  6
CONTINUOUS
 62
    7
 10
1460.2538002892511
 20
2304.1014147615087
 11
849.25380028925122
 21
2304.1014147615087
  0
LINE
  8
_0-3_âh__âÇ
  6
CONTINUOUS
 62
    7
 10
1009.7371397908539
 20
2454.4452241008144
 11
1038.5019455952827
 21
2404.6231189776954
  0
LINE
  8
_0-3_âh__âÇ
  6
CONTINUOUS
 62
    7
 10
1038.5019455952827
 20
2404.6231189776954
 11
1105.4836571449746
 21
2404.6231189776954
  0
TEXT
  8
_0-3_âh__âÇ
 62
    7
 10
1108.4714572341804
 20
2393.855800778224
 40
16.288411458333201
 41
1.1764705882353041
 50
0
  1
è¯ô_ç@
  0
LINE
  8
_f-f_
  6
CONTINUOUS
 62
    7
 10
996.57059232151755
 20
2457.083545298894
 11
995.45371798582732
 21
2441.0846666084799
  0
LINE
  8
_f-f_
  6
CONTINUOUS
 62
    7
 10
996.27173894189457
 20
2457.083545298894
 11
996.57059232151755
 21
2457.083545298894
  0
LINE
  8
_f-f_
  6
CONTINUOUS
 62
    7
 10
996.46088343660483
 20
2459.7884375920339
 11
996.27173894189457
 21
2457.083545298894
  0
LINE
  8
_f-f_
  6
CONTINUOUS
 62
    7
 10
996.75941960382306
 20
2459.7884375920339
 11
996.46088343660483
 21
2459.7884375920339
  0
LINE
  8
_f-f_
  6
CONTINUOUS
 62
    7
 10
997.6056997301605
 20
2471.9111381024791
 11
996.75941960382306
 21
2459.7884375920339
  0
ARC
  8
_f-f_
  6
CONTINUOUS
 62
    7
 10
1025.23067350304
 20
2470.7350720432473
 40
27.649996515877646
 50
167.80357666100994
 51
177.56224360000084
  0
ARC
  8
_f-f_
  6
CONTINUOUS
 62
    7
 10
1025.2306735031711
 20
2470.7350720432455
 40
27.649996516005295
 50
152.22964342549031
 51
167.80357666103481
  0
LINE
  8
_f-f_
  6
CONTINUOUS
 62
    7
 10
1035.2549378561273
 20
2545.838879304612
 11
1000.7653440339606
 21
2483.6180049895115
  0
ARC
  8
_f-f_
  6
CONTINUOUS
 62
    7
 10
1095.7917408857725
 20
2512.282781439264
 40
69.214999999995655
 50
112.49999999999841
 51
150.99999999999892
  0
LINE
  8
_f-f_
  6
CONTINUOUS
 62
    7
 10
1136.5940195030746
 20
2604.1014147615083
 11
1069.3043071146278
 21
2576.2291032820303
  0
ARC
  8
_f-f_
  6
CONTINUOUS
 62
    7
 10
1200.4807706065226
 20
2452.7725610267298
 40
164.26179999998865
 50
91.263225374230984
 51
112.88809219013238
  0
ARC
  8
_f-f_
  6
CONTINUOUS
 62
    7
 10
1193.2382523836097
 20
2452.7725610267225
 40
164.26179999999579
 50
67.111907809870019
 51
88.736774625769414
  0
LINE
  8
_f-f_
  6
CONTINUOUS
 62
    7
 10
1324.414715875497
 20
2576.2291032820303
 11
1257.1250034870577
 21
2604.1014147615087
  0
ARC
  8
_f-f_
  6
CONTINUOUS
 62
    7
 10
1297.9272821043455
 20
2512.2827814392576
 40
69.215000000003556
 50
29.000000000002476
 51
67.49999999999784
  0
LINE
  8
_f-f_
  6
CONTINUOUS
 62
    7
 10
1392.9536789561716
 20
2483.618004989512
 11
1358.464085134005
 21
2545.838879304612
  0
ARC
  8
_f-f_
  6
CONTINUOUS
 62
    7
 10
1368.4883494869468
 20
2470.7350720432441
 40
27.649996516013609
 50
12.196423338964355
 51
27.770356574505129
  0
ARC
  8
_f-f_
  6
CONTINUOUS
 62
    7
 10
1368.4883494869757
 20
2470.7350720432532
 40
27.649996515985254
 50
2.4377564000118341
 51
12.196423338942346
  0
LINE
  8
_f-f_
  6
CONTINUOUS
 62
    7
 10
1396.9596033863022
 20
2459.7884375920339
 11
1396.1133232599645
 21
2471.9111381024791
  0
LINE
  8
_f-f_
  6
CONTINUOUS
 62
    7
 10
1397.4472840482308
 20
2457.0835452988981
 11
1397.2581395535201
 21
2459.7884375920339
  0
LINE
  8
_f-f_
  6
CONTINUOUS
 62
    7
 10
1397.1484306686075
 20
2457.0835452988977
 11
1397.4472840482308
 21
2457.0835452988981
  0
LINE
  8
_f-f_
  6
CONTINUOUS
 62
    7
 10
1398.2653050042977
 20
2441.0846666084799
 11
1397.1484306686075
 21
2457.0835452988977
  0
POINT
  8
_0-3_âh__âÇ
 62
    7
 10
1017.7153501090185
 20
2460.9235198846277
  0
LINE
  8
_0-3_âh__âÇ
  6
CONTINUOUS
 62
    7
 10
1246.6367169194677
 20
2467.7437368991314
 11
1324.5653108059601
 21
2561.027068308169
  0
LINE
  8
_0-3_âh__âÇ
  6
CONTINUOUS
 62
    7
 10
1372.6367169194677
 20
2467.7437368991259
 11
1246.6367169194677
 21
2467.7437368991314
  0
LINE
  8
_0-3_âh__âÇ
  6
CONTINUOUS
 62
    7
 10
1371.9650546458256
 20
2476.8977843652328
 11
1371.2821069628667
 21
2482.9792301050361
  0
LINE
  8
_0-3_âh__âÇ
  6
CONTINUOUS
 62
    7
 10
1372.6367169194677
 20
2467.7437368991259
 11
1372.4717288020006
 21
2470.7991221247648
  0
LINE
  8
_0-3_âh__âÇ
  6
CONTINUOUS
 62
    7
 10
1361.1314609145888
 20
2514.8155276431353
 11
1353.0869652181684
 21
2529.4983649749861
  0
LINE
  8
_0-3_âh__âÇ
  6
CONTINUOUS
 62
    7
 10
1372.4717288020006
 20
2470.7991221247648
 11
1371.9650546458256
 21
2476.8977843652328
  0
LINE
  8
_0-3_âh__âÇ
  6
CONTINUOUS
 62
    7
 10
1331.7194208214028
 20
2555.1890865793339
 11
1324.5653108059601
 21
2561.027068308169
  0
LINE
  8
_0-3_âh__âÇ
  6
CONTINUOUS
 62
    7
 10
1343.2288680915049
 20
2543.0304580933589
 11
1331.7194208214028
 21
2555.1890865793339
  0
LINE
  8
_0-3_âh__âÇ
  6
CONTINUOUS
 62
    7
 10
1353.0869652181684
 20
2529.4983649749861
 11
1343.2288680915049
 21
2543.0304580933589
  0
LINE
  8
_0-3_âh__âÇ
  6
CONTINUOUS
 62
    7
 10
1367.2299533833398
 20
2499.2236062499342
 11
1361.1314609145888
 21
2514.8155276431353
  0
LINE
  8
_0-3_âh__âÇ
  6
CONTINUOUS
 62
    7
 10
1371.2820694755396
 20
2482.9792232730833
 11
1367.2299533833398
 21
2499.2236062499342
  0
LINE
  8
_0-3_âh__âÇ
  6
CONTINUOUS
 62
    7
 10
995.45371798582732
 20
2413.1728946561125
 11
995.45371798582732
 21
2355.758385545264
  0
LINE
  8
_0-3_âh__âÇ
  6
CONTINUOUS
 62
    7
 10
1398.4931165855053
 20
2413.1728946561125
 11
1398.4931165855053
 21
2355.758385545264
  0
CIRCLE
  8
_0-3_âh__âÇ
  6
CONTINUOUS
 62
    7
 10
995.45371798582732
 20
2355.9383855452638
 40
4
  0
CIRCLE
  8
_0-3_âh__âÇ
  6
CONTINUOUS
 62
    7
 10
1398.4931165855053
 20
2355.9383855452638
 40
4
  0
LINE
  8
_0-3_âh__âÇ
  6
CONTINUOUS
 62
    7
 10
968.23314259619326
 20
2441.0846666084799
 11
921.08881597609115
 21
2441.0846666084799
  0
LINE
  8
_0-3_âh__âÇ
  6
CONTINUOUS
 62
    7
 10
968.23314259619326
 20
2616.9944396595238
 11
921.08881597609115
 21
2616.9944396595238
  0
CIRCLE
  8
_0-3_âh__âÇ
  6
CONTINUOUS
 62
    7
 10
921.26881597609145
 20
2441.0846666084799
 40
4
  0
CIRCLE
  8
_0-3_âh__âÇ
  6
CONTINUOUS
 62
    7
 10
921.26881597609145
 20
2616.9944396595238
 40
4
  0
LINE
  8
_0-3_âh__âÇ
  6
CONTINUOUS
 62
    7
 10
995.45371798582732
 20
2355.9383855452638
 11
1398.4931165855053
 21
2355.9383855452638
  0
TEXT
  8
_0-3_âh__âÇ
 62
    7
 10
1170.5028290503728
 20
2356.028385545264
 40
30
 41
1.176470588235295
 50
0
  1
403
  0
LINE
  8
_0-3_âh__âÇ
  6
CONTINUOUS
 62
    7
 10
921.26881597609145
 20
2441.0846666084799
 11
921.26881597609145
 21
2616.9944396595238
  0
TEXT
  8
_0-3_âh__âÇ
 62
    7
 10
921.17881597609528
 20
2502.5689648987072
 40
30.000000000000284
 41
1.1764705882352806
 50
90
  1
176
  0
TEXT
  8
_0-3_âh__âÇ
 62
    7
 10
1573.21435907458
 20
2797.6912632215453
 40
33.75940973928067
 41
1.1764705882352833
 50
0
  1
üméUünÄUî§âJâoü[
  0
LINE
  8
_0-3_âh__âÇ
  6
CONTINUOUS
 62
    7
 10
1912.2538002892509
 20
2864.1014147615087
 11
1912.2538002892509
 21
2782.1014147615092
  0
LINE
  8
_0-3_âh__âÇ
  6
CONTINUOUS
 62
    7
 10
1912.2538002892509
 20
2782.1014147615092
 11
1547.2538002892509
 21
2782.1014147615092
  0
LINE
  8
_0-3_âh__âÇ
  6
CONTINUOUS
 62
    7
 10
849.25380028925122
 20
2864.1014147615087
 11
1460.2538002892511
 21
2864.1014147615087
  0
TEXT
  8
_0-3_âh__âÇ
 62
    7
 10
884.25380028925088
 20
2798.4069703170644
 40
33.954861111110972
 41
1.1764705882352995
 50
0
  1
üméPünâîâCâxâôâ_ü[âhü[âÇ
  0
LINE
  8
_0-3_âh__âÇ
  6
CONTINUOUS
 62
    7
 10
849.25380028925122
 20
2864.1014147615087
 11
1460.2538002892511
 21
2864.1014147615087
  0
LINE
  8
_0-3_âh__âÇ
  6
CONTINUOUS
 62
    7
 10
1460.2538002892511
 20
2785.1014147615092
 11
849.25380028925122
 21
2785.1014147615092
  0
LINE
  8
_0-3_âh__âÇ
  6
CONTINUOUS
 62
    7
 10
849.25380028925122
 20
2304.1014147615087
 11
849.25380028925122
 21
2864.1014147615087
  0
LINE
  8
_0-3_âh__âÇ
  6
CONTINUOUS
 62
    7
 10
1460.2538002892511
 20
2864.1014147615087
 11
1460.2538002892511
 21
2304.1014147615087
  0
LINE
  8
_0-3_âh__âÇ
  6
CONTINUOUS
 62
    7
 10
1547.2538002892509
 20
2346.1014147615087
 11
1547.2538002892509
 21
2864.1014147615087
  0
LINE
  8
_0-3_âh__âÇ
  6
CONTINUOUS
 62
    7
 10
2300.311835469251
 20
2346.1014147615087
 11
1547.2538002892509
 21
2346.1014147615087
  0
LINE
  8
_0-3_âh__âÇ
  6
CONTINUOUS
 62
    7
 10
1547.2538002892509
 20
2864.1014147615087
 11
2300.311835469251
 21
2864.1014147615087
  0
LINE
  8
_0-3_âh__âÇ
  6
CONTINUOUS
 62
    7
 10
2300.311835469251
 20
2864.1014147615087
 11
2300.311835469251
 21
2346.1014147615087
  0
LINE
  8
_f-f_
  6
CONTINUOUS
 62
    7
 10
2101.6961315960948
 20
2498.130998141904
 11
2101.6961315960948
 21
2497.3309981419043
  0
LINE
  8
_f-f_
  6
CONTINUOUS
 62
    7
 10
2132.8961315960946
 20
2717.2756634456155
 11
2133.6961315960948
 21
2717.2756634456155
  0
LINE
  8
_f-f_
  6
CONTINUOUS
 62
    7
 10
1713.6961315960946
 20
2717.2756634456155
 11
1714.496131596095
 21
2717.2756634456155
  0
LINE
  8
_f-f_
  6
CONTINUOUS
 62
    7
 10
1745.6961315960948
 20
2708.0756634456152
 11
1745.6961315960948
 21
2707.2756634456155
  0
LINE
  8
_f-f_
  6
CONTINUOUS
 62
    7
 10
2101.6961315960948
 20
2708.0756634456152
 11
2101.6961315960948
 21
2707.2756634456155
  0
LINE
  8
_f-f_
  6
CONTINUOUS
 62
    7
 10
1714.496131596095
 20
2709.0756634456152
 11
1714.496131596095
 21
2717.2756634456155
  0
LINE
  8
_f-f_
  6
CONTINUOUS
 62
    7
 10
1713.6961315960946
 20
2717.2756634456155
 11
1713.6961315960946
 21
2709.0756634456152
  0
LINE
  8
_f-f_
  6
CONTINUOUS
 62
    7
 10
1715.4961315960945
 20
2707.2756634456155
 11
1745.6961315960948
 21
2707.2756634456155
  0
LINE
  8
_f-f_
  6
CONTINUOUS
 62
    7
 10
2132.8961315960946
 20
2709.0756634456152
 11
2132.8961315960946
 21
2717.2756634456155
  0
LINE
  8
_f-f_
  6
CONTINUOUS
 62
    7
 10
2133.6961315960948
 20
2717.2756634456155
 11
2133.6961315960948
 21
2709.0756634456152
  0
LINE
  8
_f-f_
  6
CONTINUOUS
 62
    7
 10
2101.6961315960948
 20
2707.2756634456155
 11
2131.8961315960946
 21
2707.2756634456155
  0
LINE
  8
_f-f_
  6
CONTINUOUS
 62
    7
 10
1720.4961315960945
 20
2708.775663445615
 11
2126.8961315960946
 21
2708.775663445615
  0
LINE
  8
_f-f_
  6
CONTINUOUS
 62
    7
 10
2126.8961315960946
 20
2708.0756634456152
 11
2126.8961315960946
 21
2708.775663445615
  0
LINE
  8
_f-f_
  6
CONTINUOUS
 62
    7
 10
2131.8961315960946
 20
2708.0756634456152
 11
1715.4961315960945
 21
2708.0756634456152
  0
LINE
  8
_f-f_
  6
CONTINUOUS
 62
    7
 10
1720.4961315960945
 20
2708.0756634456152
 11
1720.4961315960945
 21
2708.775663445615
  0
ARC
  8
_f-f_
  6
CONTINUOUS
 62
    7
 10
1715.4961315960945
 20
2709.0756634456152
 40
1
 50
180
 51
270
  0
ARC
  8
_f-f_
  6
CONTINUOUS
 62
    7
 10
1715.4961315960945
 20
2709.0756634456152
 40
1.8000000000000003
 50
180
 51
270
  0
ARC
  8
_f-f_
  6
CONTINUOUS
 62
    7
 10
2131.8961315960946
 20
2709.0756634456152
 40
1
 50
270
 51
0
  0
ARC
  8
_f-f_
  6
CONTINUOUS
 62
    7
 10
2131.8961315960946
 20
2709.0756634456152
 40
1.8000000000000003
 50
270
 51
0
  0
LINE
  8
_f-f_
  6
CONTINUOUS
 62
    7
 10
2132.8961315960946
 20
2507.3309981419038
 11
2133.6961315960948
 21
2507.3309981419038
  0
LINE
  8
_f-f_
  6
CONTINUOUS
 62
    7
 10
1713.6961315960946
 20
2507.3309981419038
 11
1714.496131596095
 21
2507.3309981419038
  0
LINE
  8
_f-f_
  6
CONTINUOUS
 62
    7
 10
1745.6961315960948
 20
2498.130998141904
 11
1745.6961315960948
 21
2497.3309981419043
  0
LINE
  8
_f-f_
  6
CONTINUOUS
 62
    7
 10
1714.496131596095
 20
2499.130998141904
 11
1714.496131596095
 21
2507.3309981419038
  0
LINE
  8
_f-f_
  6
CONTINUOUS
 62
    7
 10
1713.6961315960946
 20
2507.3309981419038
 11
1713.6961315960946
 21
2499.130998141904
  0
LINE
  8
_f-f_
  6
CONTINUOUS
 62
    7
 10
2132.8961315960946
 20
2499.130998141904
 11
2132.8961315960946
 21
2507.3309981419038
  0
LINE
  8
_f-f_
  6
CONTINUOUS
 62
    7
 10
2133.6961315960948
 20
2507.3309981419038
 11
2133.6961315960948
 21
2499.130998141904
  0
ARC
  8
_f-f_
  6
CONTINUOUS
 62
    7
 10
1715.4961315960945
 20
2499.130998141904
 40
1
 50
180
 51
270
  0
ARC
  8
_f-f_
  6
CONTINUOUS
 62
    7
 10
1715.4961315960945
 20
2499.130998141904
 40
1.8000000000000003
 50
180
 51
270
  0
ARC
  8
_f-f_
  6
CONTINUOUS
 62
    7
 10
2131.8961315960946
 20
2499.130998141904
 40
1
 50
270
 51
0
  0
ARC
  8
_f-f_
  6
CONTINUOUS
 62
    7
 10
2131.8961315960946
 20
2499.130998141904
 40
1.8000000000000003
 50
270
 51
0
  0
LINE
  8
_f-f_
  6
CONTINUOUS
 62
    7
 10
1715.4961315960945
 20
2498.130998141904
 11
1745.6961315960948
 21
2498.130998141904
  0
LINE
  8
_f-f_
  6
CONTINUOUS
 62
    7
 10
2101.6961315960948
 20
2498.130998141904
 11
2131.8961315960946
 21
2498.130998141904
  0
LINE
  8
_f-f_
  6
CONTINUOUS
 62
    7
 10
1707.6961315960946
 20
2497.3309981419043
 11
2139.6961315960948
 21
2497.3309981419043
  0
CIRCLE
  8
_0-3_âh__âÇ
  6
CONTINUOUS
 62
    7
 10
1745.6961315960948
 20
2659.1632982617784
 40
4
  0
CIRCLE
  8
_0-3_âh__âÇ
  6
CONTINUOUS
 62
    7
 10
2101.6961315960948
 20
2659.1632982617784
 40
4
  0
LINE
  8
_0-3_âh__âÇ
  6
CONTINUOUS
 62
    7
 10
1745.6961315960948
 20
2659.1632982617784
 11
2101.6961315960948
 21
2659.1632982617784
  0
TEXT
  8
_0-3_âh__âÇ
 62
    7
 10
1897.2255433608007
 20
2659.1632982617784
 40
30.000000000000142
 41
1.1764705882352895
 50
0
  1
356
  0
CIRCLE
  8
_0-3_âh__âÇ
  6
CONTINUOUS
 62
    7
 10
1713.6961315960946
 20
2625.945771545189
 40
4
  0
CIRCLE
  8
_0-3_âh__âÇ
  6
CONTINUOUS
 62
    7
 10
2133.6961315960948
 20
2625.945771545189
 40
4
  0
LINE
  8
_0-3_âh__âÇ
  6
CONTINUOUS
 62
    7
 10
1713.8672478674625
 20
2625.945771545189
 11
2133.6961315960948
 21
2625.945771545189
  0
TEXT
  8
_0-3_âh__âÇ
 62
    7
 10
1897.2255433608007
 20
2625.945771545189
 40
30.000000000000142
 41
1.1764705882352895
 50
0
  1
420
  0
CIRCLE
  8
_0-3_âh__âÇ
  6
CONTINUOUS
 62
    7
 10
1745.6961315960948
 20
2449.2186329580672
 40
4
  0
CIRCLE
  8
_0-3_âh__âÇ
  6
CONTINUOUS
 62
    7
 10
2101.6961315960948
 20
2449.2186329580672
 40
4
  0
LINE
  8
_0-3_âh__âÇ
  6
CONTINUOUS
 62
    7
 10
1745.6961315960948
 20
2449.2186329580672
 11
2101.6961315960948
 21
2449.2186329580672
  0
CIRCLE
  8
_0-3_âh__âÇ
  6
CONTINUOUS
 62
    7
 10
1707.8672478674946
 20
2416.0011062414778
 40
4
  0
CIRCLE
  8
_0-3_âh__âÇ
  6
CONTINUOUS
 62
    7
 10
2139.6961315960948
 20
2416.0011062414778
 40
4
  0
LINE
  8
_0-3_âh__âÇ
  6
CONTINUOUS
 62
    7
 10
1707.6961315960946
 20
2416.0011062414778
 11
2139.6961315960948
 21
2416.0011062414778
  0
TEXT
  8
_0-3_âh__âÇ
 62
    7
 10
1899.4082596321668
 20
2449.3086329580669
 40
30.000000000000142
 41
1.1764705882352877
 50
0
  1
356
  0
TEXT
  8
_0-3_âh__âÇ
 62
    7
 10
1897.2255433608007
 20
2416.0011062414778
 40
30.000000000000142
 41
1.1764705882352895
 50
0
  1
432
  0
LINE
  8
_0-3_âh__âÇ
  6
CONTINUOUS
 62
    7
 10
2101.6961315960948
 20
2480.0435393830571
 11
2101.6961315960948
 21
2449.2186329580672
  0
LINE
  8
_0-3_âh__âÇ
  6
CONTINUOUS
 62
    7
 10
2139.6961315960948
 20
2480.0435393830571
 11
2139.6961315960948
 21
2416.0011062414778
  0
LINE
  8
_0-3_âh__âÇ
  6
CONTINUOUS
 62
    7
 10
1707.6961315960946
 20
2480.0435393830571
 11
1707.6961315960946
 21
2416.0011062414778
  0
LINE
  8
_0-3_âh__âÇ
  6
CONTINUOUS
 62
    7
 10
1745.6961315960948
 20
2480.0435393830571
 11
1745.6961315960948
 21
2449.2186329580672
  0
LINE
  8
_0-3_âh__âÇ
  6
CONTINUOUS
 62
    7
 10
2101.6961315960948
 20
2692.8280238231168
 11
2101.6961315960948
 21
2659.1632982617784
  0
LINE
  8
_0-3_âh__âÇ
  6
CONTINUOUS
 62
    7
 10
2133.6961315960948
 20
2692.8280238231168
 11
2133.6961315960948
 21
2625.945771545189
  0
LINE
  8
_0-3_âh__âÇ
  6
CONTINUOUS
 62
    7
 10
1745.6961315960948
 20
2692.8280238231168
 11
1745.6961315960948
 21
2659.1632982617784
  0
LINE
  8
_0-3_âh__âÇ
  6
CONTINUOUS
 62
    7
 10
1713.6961315960946
 20
2692.8280238231168
 11
1713.6961315960946
 21
2625.7657715451887
  0
LINE
  8
ADD_LINE
  6
DOT
 62
    7
 10
1716.1961315960946
 20
2709.0756634456152
 11
1716.1961315960946
 21
2717.2756634456155
  0
LINE
  8
_0-3_âh__âÇ
  6
CONTINUOUS
 62
    7
 10
1746.7025070664681
 20
2759.0216634456151
 11
1789.6842186161598
 21
2759.0216634456151
  0
TEXT
  8
_0-3_âh__âÇ
 62
    7
 10
1798.6842186161596
 20
2748.2473016243612
 40
16.288411458333343
 41
1.1764705882352928
 50
0
  1
è¯ô_çDüf
  0
LINE
  8
_0-3_âh__âÇ
  6
CONTINUOUS
 62
    7
 10
1717.9377012620394
 20
2721.0216634456151
 11
1746.7025070664681
 21
2759.0216634456151
  0
POINT
  8
_0-3_âh__âÇ
 62
    7
 10
1716.1961315960946
 20
2717.2756634456155
  0
LINE
  8
ADD_LINE
  6
DOT
 62
    7
 10
1716.1961315960946
 20
2499.130998141904
 11
1716.1961315960946
 21
2507.3309981419038
  0
LINE
  8
ADD_LINE
  6
DOT
 62
    7
 10
1714.496131596095
 20
2507.3309981419038
 11
1747.5079470833296
 21
2507.3309981419038
  0
LINE
  8
_0-3_âh__âÇ
  6
CONTINUOUS
 62
    7
 10
1746.7025070664681
 20
2549.0769981419039
 11
1789.6842186161598
 21
2549.0769981419039
  0
TEXT
  8
_0-3_âh__âÇ
 62
    7
 10
1798.6842186161596
 20
2538.30263632065
 40
16.288411458333343
 41
1.1764705882352928
 50
0
  1
è¯ô_çDüf
  0
LINE
  8
_0-3_âh__âÇ
  6
CONTINUOUS
 62
    7
 10
1717.9377012620394
 20
2511.0769981419044
 11
1746.7025070664681
 21
2549.0769981419039
  0
POINT
  8
_0-3_âh__âÇ
 62
    7
 10
1716.1961315960946
 20
2507.3309981419038
  0
TEXT
  8
_0-3_âh__âÇ
 62
    7
 10
107.17837604525641
 20
2715.7125258726192
 40
30
 41
1
 50
0
  1
üß290DSü@âXâNâGâAâLâbâgü@É╗òiÉ}û╩üÔ
  0
TEXT
  8
_0-3_âh__âÇ
 62
    7
 10
1808.7191095372714
 20
2577.9898765109328
 40
24.432617187499943
 41
1.1764705882352966
 50
0
  1
âXâNâGâAâIâvâeâB
  0
TEXT
  8
_0-3_âh__âÇ
 62
    7
 10
1751.2305985078592
 20
2368.0452112077273
 40
24.432617187500085
 41
1.1764705882352899
 50
0
  1
âXâNâGâAâWâââXâgâtâìâXâg
  0
LINE
  8
_0-3_âh__âÇ
  6
CONTINUOUS
 62
    7
 10
2048.5981767060948
 20
2610.2061851046828
 11
2048.5981767060948
 21
2570.2061851046828
  0
LINE
  8
_0-3_âh__âÇ
  6
CONTINUOUS
 62
    7
 10
1798.7940864860946
 20
2570.2061851046828
 11
2048.5981767060948
 21
2570.2061851046828
  0
LINE
  8
_0-3_âh__âÇ
  6
CONTINUOUS
 62
    7
 10
1798.7940864860946
 20
2610.2061851046828
 11
1798.7940864860946
 21
2570.2061851046828
  0
LINE
  8
_0-3_âh__âÇ
  6
CONTINUOUS
 62
    7
 10
1798.7940864860946
 20
2610.2061851046828
 11
2048.5981767060948
 21
2610.2061851046828
  0
LINE
  8
_0-3_âh__âÇ
  6
CONTINUOUS
 62
    7
 10
1738.7422123060946
 20
2400.2615198014773
 11
2108.650050886095
 21
2400.2615198014773
  0
LINE
  8
_0-3_âh__âÇ
  6
CONTINUOUS
 62
    7
 10
1738.7422123060946
 20
2400.2615198014773
 11
1738.7422123060946
 21
2360.2615198014773
  0
LINE
  8
_0-3_âh__âÇ
  6
CONTINUOUS
 62
    7
 10
1738.7422123060946
 20
2360.2615198014773
 11
2108.650050886095
 21
2360.2615198014773
  0
LINE
  8
_0-3_âh__âÇ
  6
CONTINUOUS
 62
    7
 10
2108.650050886095
 20
2400.2615198014773
 11
2108.650050886095
 21
2360.2615198014773
  0
LINE
  8
_0-3_âh__âÇ
  6
DASHED1
 62
    7
 10
1017.7153501090185
 20
2460.9235198846277
 11
1375.961884045621
 21
2460.9235198846277
  0
LINE
  8
_0-3_âh__âÇ
  6
DASHED1
 62
    7
 10
937.812648705078
 20
2027.1014147615087
 11
1296.0591826527257
 21
2027.1014147615087
  0
POINT
  8
_0-3_âh__âÇ
 62
    7
 10
1648.8683413765561
 20
2027.4898227865456
  0
LINE
  8
_0-3_âh__âÇ
  6
CONTINUOUS
 62
    7
 10
1691.5767562595652
 20
2022.2266611155408
 11
1691.5767562595652
 21
2006.1670456277911
  0
LINE
  8
_0-3_âh__âÇ
  6
CONTINUOUS
 62
    7
 10
2088.5567884254147
 20
1979.3867009331402
 11
2059.403006815865
 21
2005.406888874511
  0
LINE
  8
_0-3_âh__âÇ
  6
CONTINUOUS
 62
    7
 10
1691.3737409031353
 20
2005.406888874511
 11
1662.2199592935344
 21
1979.3867009331402
  0
ARC
  8
_0-3_âh__âÇ
  6
CONTINUOUS
 62
    7
 10
1690.0521092195636
 20
2006.1670456277911
 40
1.5246470399767367
 50
330.09397870318793
 51
359.99999999999994
  0
ARC
  8
_0-3_âh__âÇ
  6
CONTINUOUS
 62
    7
 10
1697.116307171475
 20
2022.2266611155408
 40
5.5395509119156303
 50
108.17537510707821
 51
180
  0
ARC
  8
_0-3_âh__âÇ
  6
CONTINUOUS
 62
    7
 10
2060.7246384993837
 20
2006.1670456277911
 40
1.5246470399771739
 50
180
 51
209.90602129681201
  0
ARC
  8
_0-3_âh__âÇ
  6
CONTINUOUS
 62
    7
 10
2053.660440547525
 20
2022.2266611155408
 40
5.5395509119156303
 50
0
 51
71.824624892921761
  0
LINE
  8
_0-3_âh__âÇ
  6
CONTINUOUS
 62
    7
 10
2059.1999914594439
 20
2006.1670456277911
 11
2059.1999914594439
 21
2022.2266611155408
  0
ARC
  8
_0-3_âh__âÇ
  6
CONTINUOUS
 62
    7
 10
1656.7131606121154
 20
1982.5540207384397
 40
6.352695999903144
 50
270
 51
330.09397870318799
  0
ARC
  8
_0-3_âh__âÇ
  6
CONTINUOUS
 62
    7
 10
2094.0635871068939
 20
1982.5540207384397
 40
6.352695999903287
 50
209.90602129681201
 51
270
  0
LINE
  8
_0-3_âh__âÇ
  6
CONTINUOUS
 62
    7
 10
1527.8883738595346
 20
1874.2013247385398
 11
1528.6883738595343
 21
1874.2013247385398
  0
LINE
  8
_0-3_âh__âÇ
  6
CONTINUOUS
 62
    7
 10
1528.6883738595343
 20
1973.4013247385401
 11
1528.6883738595343
 21
1874.2013247385398
  0
LINE
  8
_0-3_âh__âÇ
  6
CONTINUOUS
 62
    7
 10
1530.6883738595345
 20
1975.4013247385401
 11
1656.7131606121154
 21
1975.4013247385401
  0
ARC
  8
_0-3_âh__âÇ
  6
CONTINUOUS
 62
    7
 10
1530.6883738595345
 20
1973.4013247385401
 40
2
 50
90
 51
180
  0
LINE
  8
_0-3_âh__âÇ
  6
CONTINUOUS
 62
    7
 10
1527.8883738595346
 20
1973.4013247385401
 11
1527.8883738595346
 21
1874.2013247385398
  0
LINE
  8
_0-3_âh__âÇ
  6
CONTINUOUS
 62
    7
 10
1530.6883738595345
 20
1976.2013247385401
 11
1656.7131606121154
 21
1976.2013247385401
  0
ARC
  8
_0-3_âh__âÇ
  6
CONTINUOUS
 62
    7
 10
1530.6883738595345
 20
1973.4013247385401
 40
2.8000000000000003
 50
90
 51
180
  0
ARC
  8
_0-3_âh__âÇ
  6
CONTINUOUS
 62
    7
 10
1656.7131606121154
 20
1982.5540207384397
 40
7.1526959999031439
 50
270
 51
330.09397870318799
  0
ARC
  8
_0-3_âh__âÇ
  6
CONTINUOUS
 62
    7
 10
1690.0521092195636
 20
2006.1670456277911
 40
2.3246470399767367
 50
326.58383312647038
 51
359.99999999999994
  0
LINE
  8
_0-3_âh__âÇ
  6
CONTINUOUS
 62
    7
 10
1691.9924746772044
 20
2004.8868246502773
 11
1662.7526582792621
 21
1978.7898493681723
  0
LINE
  8
_0-3_âh__âÇ
  6
CONTINUOUS
 62
    7
 10
1692.3767562595651
 20
2022.2266611155408
 11
1692.3767562595651
 21
2006.1670456277911
  0
ARC
  8
_0-3_âh__âÇ
  6
CONTINUOUS
 62
    7
 10
1697.116307171475
 20
2022.2266611155408
 40
4.7395509119156305
 50
108.17537510707821
 51
180
  0
LINE
  8
_0-3_âh__âÇ
  6
CONTINUOUS
 62
    7
 10
1695.3883738595068
 20
2027.4898227865419
 11
1695.6379151439096
 21
2026.7297378259102
  0
LINE
  8
_0-3_âh__âÇ
  6
CONTINUOUS
 62
    7
 10
2222.0883738595344
 20
1874.2013247385398
 11
2222.8883738595346
 21
1874.2013247385398
  0
LINE
  8
_0-3_âh__âÇ
  6
CONTINUOUS
 62
    7
 10
2220.0883738595344
 20
1975.4013247385401
 11
2094.0635871068939
 21
1975.4013247385401
  0
LINE
  8
_0-3_âh__âÇ
  6
CONTINUOUS
 62
    7
 10
2222.0883738595344
 20
1973.4013247385401
 11
2222.0883738595344
 21
1874.2013247385398
  0
ARC
  8
_0-3_âh__âÇ
  6
CONTINUOUS
 62
    7
 10
2220.0883738595344
 20
1973.4013247385401
 40
2
 50
0
 51
90
  0
LINE
  8
_0-3_âh__âÇ
  6
CONTINUOUS
 62
    7
 10
2222.8883738595346
 20
1973.4013247385401
 11
2222.8883738595346
 21
1874.2013247385398
  0
ARC
  8
_0-3_âh__âÇ
  6
CONTINUOUS
 62
    7
 10
2220.0883738595344
 20
1973.4013247385401
 40
2.8000000000000003
 50
0
 51
90
  0
LINE
  8
_0-3_âh__âÇ
  6
CONTINUOUS
 62
    7
 10
2094.0635871068939
 20
1976.2013247385401
 11
2220.0883738595344
 21
1976.2013247385401
  0
ARC
  8
_0-3_âh__âÇ
  6
CONTINUOUS
 62
    7
 10
2094.0635871068939
 20
1982.5540207384397
 40
7.1526959999032869
 50
210.97064998943048
 51
270
  0
ARC
  8
_0-3_âh__âÇ
  6
CONTINUOUS
 62
    7
 10
2060.7246384993837
 20
2006.1670456277911
 40
2.3246470399771741
 50
180
 51
213.41616687010261
  0
LINE
  8
_0-3_âh__âÇ
  6
CONTINUOUS
 62
    7
 10
2087.9306436891948
 20
1978.87325110393
 11
2058.784273041666
 21
2004.886824650393
  0
LINE
  8
_0-3_âh__âÇ
  6
CONTINUOUS
 62
    7
 10
2058.3999914594442
 20
2006.1670456277911
 11
2058.3999914594442
 21
2022.2266611155408
  0
ARC
  8
_0-3_âh__âÇ
  6
CONTINUOUS
 62
    7
 10
2053.660440547525
 20
2022.2266611155408
 40
4.7395509119156305
 50
0
 51
71.824624892921761
  0
LINE
  8
_0-3_âh__âÇ
  6
CONTINUOUS
 62
    7
 10
2055.3883738594932
 20
2027.4898227865419
 11
2055.1388325750904
 21
2026.7297378259102
  0
LINE
  8
_0-3_âh__âÇ
  6
DASHED1
 62
    7
 10
1695.3883738595346
 20
2027.4898227865503
 11
2055.3883738594945
 21
2027.489822786541
  0
CIRCLE
  8
_0-4_òÂÄÜ
  6
CONTINUOUS
 62
    7
 10
2274.5973072507572
 20
2027.4898227865419
 40
4
  0
TEXT
  8
_0-4_òÂÄÜ
 62
    7
 10
2274.8791197314858
 20
1984.9643101354766
 40
30
 41
1.1764705882352959
 50
90
  1
51
  0
LINE
  8
_0-4_òÂÄÜ
  6
CONTINUOUS
 62
    7
 10
2227.4724232719186
 20
2027.4898227865419
 11
2274.5973072507572
 21
2027.4898227865419
  0
LINE
  8
_0-4_òÂÄÜ
  6
CONTINUOUS
 62
    7
 10
2274.5973072507572
 20
1874.2013247385398
 11
2274.5973072507572
 21
2027.4898227865419
  0
TEXT
  8
_8-0_
 62
    7
 10
2553.9552080014223
 20
136.20694400189564
 40
27.999999999999829
 41
1.000000000000006
 50
0
  1
290DS âXâNâGâAâLâbâg CADÉ}û╩
  0
TEXT
  8
_8-0_
 62
    7
 10
3033.95520800141
 20
173.70694400189507
 40
27.999999999999972
 41
1.0000000000000002
 50
0
  1
2017/7/1
  0
TEXT
  8
_8-0_
 62
    7
 10
3061.9552080014209
 20
98.706944001895636
 40
27.999999999999829
 41
1.0000000000000058
 50
0
  1
1/10
  0
TEXT
  8
_8-0_
 62
    7
 10
3400.9528793801155
 20
106.87921802271092
 40
23.999999999999773
 41
1.0000000000000078
 50
0
  1
ïZÅpüEÄ{ìHòö
  0
LINE
  8
_0-3_âh__âÇ
  6
CONTINUOUS
 62
    7
 10
3745.513626906275
 20
1255.1992173275125
 11
3745.513626906275
 21
1285.1992173275125
  0
LINE
  8
_0-3_âh__âÇ
  6
CONTINUOUS
 62
    7
 10
3775.513626906275
 20
1285.1992173275125
 11
3745.513626906275
 21
1285.1992173275125
  0
LINE
  8
_0-3_âh__âÇ
  6
CONTINUOUS
 62
    7
 10
3775.513626906275
 20
1255.1992173275125
 11
3775.513626906275
 21
1285.1992173275125
  0
LINE
  8
_0-3_âh__âÇ
  6
CONTINUOUS
 62
    7
 10
3775.513626906275
 20
1285.1992173275125
 11
3745.513626906275
 21
1255.1992173275125
  0
LINE
  8
_0-3_âh__âÇ
  6
CONTINUOUS
 62
    7
 10
3745.513626906275
 20
1285.1992173275125
 11
3775.513626906275
 21
1255.1992173275125
  0
LINE
  8
_0-3_âh__âÇ
  6
CONTINUOUS
 62
    7
 10
3345.513626906275
 20
1255.1992173275125
 11
3345.513626906275
 21
1285.1992173275125
  0
LINE
  8
_0-3_âh__âÇ
  6
CONTINUOUS
 62
    7
 10
3345.513626906275
 20
1285.1992173275125
 11
3375.513626906275
 21
1285.1992173275125
  0
LINE
  8
_0-3_âh__âÇ
  6
CONTINUOUS
 62
    7
 10
3375.513626906275
 20
1255.1992173275125
 11
3375.513626906275
 21
1285.1992173275125
  0
LINE
  8
_0-3_âh__âÇ
  6
CONTINUOUS
 62
    7
 10
3375.513626906275
 20
1285.1992173275125
 11
3345.513626906275
 21
1255.1992173275125
  0
LINE
  8
_0-3_âh__âÇ
  6
CONTINUOUS
 62
    7
 10
3345.513626906275
 20
1285.1992173275125
 11
3375.513626906275
 21
1255.1992173275125
  0
LINE
  8
_0-3_âh__âÇ
  6
CONTINUOUS
 62
    7
 10
3853.513626906275
 20
1295.1992173275125
 11
3873.513626906275
 21
1295.1992173275125
  0
LINE
  8
_0-3_âh__âÇ
  6
CONTINUOUS
 62
    7
 10
3873.513626906275
 20
1295.1992173275125
 11
3873.513626906275
 21
1255.1992173275125
  0
LINE
  8
_0-3_âh__âÇ
  6
CONTINUOUS
 62
    7
 10
3873.513626906275
 20
1255.1992173275125
 11
3853.513626906275
 21
1255.1992173275125
  0
LINE
  8
_0-3_âh__âÇ
  6
CONTINUOUS
 62
    7
 10
3853.513626906275
 20
1255.1992173275125
 11
3853.513626906275
 21
1295.1992173275125
  0
LINE
  8
_0-3_âh__âÇ
  6
CONTINUOUS
 62
    7
 10
3853.513626906275
 20
1295.1992173275125
 11
3873.513626906275
 21
1255.1992173275125
  0
LINE
  8
_0-3_âh__âÇ
  6
CONTINUOUS
 62
    7
 10
3873.513626906275
 20
1295.1992173275125
 11
3853.513626906275
 21
1255.1992173275125
  0
LINE
  8
_0-3_âh__âÇ
  6
CONTINUOUS
 62
    7
 10
3853.513626906275
 20
1295.1992173275125
 11
3873.513626906275
 21
1295.1992173275125
  0
LINE
  8
_0-3_âh__âÇ
  6
CONTINUOUS
 62
    7
 10
3873.513626906275
 20
1295.1992173275125
 11
3873.513626906275
 21
1255.1992173275125
  0
LINE
  8
_0-3_âh__âÇ
  6
CONTINUOUS
 62
    7
 10
3873.513626906275
 20
1255.1992173275125
 11
3853.513626906275
 21
1255.1992173275125
  0
LINE
  8
_0-3_âh__âÇ
  6
CONTINUOUS
 62
    7
 10
3853.513626906275
 20
1255.1992173275125
 11
3853.513626906275
 21
1295.1992173275125
  0
LINE
  8
_0-3_âh__âÇ
  6
CONTINUOUS
 62
    7
 10
3853.513626906275
 20
1295.1992173275125
 11
3873.513626906275
 21
1255.1992173275125
  0
LINE
  8
_0-3_âh__âÇ
  6
CONTINUOUS
 62
    7
 10
3873.513626906275
 20
1295.1992173275125
 11
3853.513626906275
 21
1255.1992173275125
  0
LINE
  8
_0-3_âh__âÇ
  6
CONTINUOUS
 62
    7
 10
3247.513626906275
 20
1295.1992173275125
 11
3267.513626906275
 21
1295.1992173275125
  0
LINE
  8
_0-3_âh__âÇ
  6
CONTINUOUS
 62
    7
 10
3267.513626906275
 20
1295.1992173275125
 11
3267.513626906275
 21
1255.1992173275125
  0
LINE
  8
_0-3_âh__âÇ
  6
CONTINUOUS
 62
    7
 10
3267.513626906275
 20
1255.1992173275125
 11
3247.513626906275
 21
1255.1992173275125
  0
LINE
  8
_0-3_âh__âÇ
  6
CONTINUOUS
 62
    7
 10
3247.513626906275
 20
1255.1992173275125
 11
3247.513626906275
 21
1295.1992173275125
  0
LINE
  8
_0-3_âh__âÇ
  6
CONTINUOUS
 62
    7
 10
3267.513626906275
 20
1295.1992173275125
 11
3247.513626906275
 21
1255.1992173275125
  0
LINE
  8
_0-3_âh__âÇ
  6
CONTINUOUS
 62
    7
 10
3247.513626906275
 20
1295.1992173275125
 11
3267.513626906275
 21
1255.1992173275125
  0
LINE
  8
_0-3_âh__âÇ
  6
CONTINUOUS
 62
    7
 10
3247.513626906275
 20
1295.1992173275125
 11
3267.513626906275
 21
1295.1992173275125
  0
LINE
  8
_0-3_âh__âÇ
  6
CONTINUOUS
 62
    7
 10
3267.513626906275
 20
1295.1992173275125
 11
3267.513626906275
 21
1255.1992173275125
  0
LINE
  8
_0-3_âh__âÇ
  6
CONTINUOUS
 62
    7
 10
3267.513626906275
 20
1255.1992173275125
 11
3247.513626906275
 21
1255.1992173275125
  0
LINE
  8
_0-3_âh__âÇ
  6
CONTINUOUS
 62
    7
 10
3247.513626906275
 20
1255.1992173275125
 11
3247.513626906275
 21
1295.1992173275125
  0
LINE
  8
_0-3_âh__âÇ
  6
CONTINUOUS
 62
    7
 10
3267.513626906275
 20
1295.1992173275125
 11
3247.513626906275
 21
1255.1992173275125
  0
LINE
  8
_0-3_âh__âÇ
  6
CONTINUOUS
 62
    7
 10
3247.513626906275
 20
1295.1992173275125
 11
3267.513626906275
 21
1255.1992173275125
  0
LINE
  8
_f-f_
  6
CONTINUOUS
 62
    7
 10
2139.6961315960948
 20
2497.3309981419043
 11
2139.6961315960948
 21
2492.3309981419043
  0
LINE
  8
_f-f_
  6
CONTINUOUS
 62
    7
 10
1707.6961315960946
 20
2497.3309981419043
 11
1707.6961315960946
 21
2492.3309981419043
  0
LINE
  8
_f-f_
  6
CONTINUOUS
 62
    7
 10
1707.6961315960946
 20
2492.3309981419043
 11
2139.6961315960948
 21
2492.3309981419043
  0
LINE
  8
_0-3_âh__âÇ
  6
CONTINUOUS
 62
    7
 10
2195.6040449017128
 20
2711.5606634323867
 11
2195.581231223925
 21
2711.5606634323867
  0
CIRCLE
  8
_0-3_âh__âÇ
  6
CONTINUOUS
 62
    7
 10
2198.9262926831107
 20
2717.2756634456155
 40
4
  0
CIRCLE
  8
_0-3_âh__âÇ
  6
CONTINUOUS
 62
    7
 10
2198.9262926831107
 20
2707.7506634456154
 40
4
  0
TEXT
  8
_0-3_âh__âÇ
 62
    7
 10
2197.8509884111345
 20
2726.0873373958029
 40
29.999999999999964
 41
1.1764705882352993
 50
90
  1
10
  0
LINE
  8
_0-3_âh__âÇ
  6
CONTINUOUS
 62
    7
 10
2198.9262926831107
 20
2763.2075351060644
 11
2198.9262926831107
 21
2707.2756634456159
  0
LINE
  8
_0-3_âh__âÇ
  6
CONTINUOUS
 62
    7
 10
2149.5
 20
2717.2756634456155
 11
2199.106292683111
 21
2717.2756634456155
  0
LINE
  8
_0-3_âh__âÇ
  6
CONTINUOUS
 62
    7
 10
2149.5
 20
2707.2756634456159
 11
2198.9262926831107
 21
2707.2756634456159
  0
CIRCLE
  8
_0-3_âh__âÇ
  6
CONTINUOUS
 62
    7
 10
2198.9262926831107
 20
2507.3309981418879
 40
4
  0
LINE
  8
_0-3_âh__âÇ
  6
CONTINUOUS
 62
    7
 10
2149.5
 20
2507.3309981418879
 11
2198.9262926831107
 21
2507.3309981418879
  0
LINE
  8
_f-f_
  6
CONTINUOUS
 62
    7
 10
2155.6649411510634
 20
2497.3309981417883
 11
2198.9262926831107
 21
2497.3309981417883
  0
LINE
  8
_f-f_
  6
CONTINUOUS
 62
    7
 10
2155.6649411510634
 20
2492.3309981417883
 11
2198.9262926831107
 21
2492.3309981417883
  0
CIRCLE
  8
_0-3_âh__âÇ
  6
CONTINUOUS
 62
    7
 10
2198.9262926831107
 20
2492.3309981417883
 40
4
  0
CIRCLE
  8
_0-3_âh__âÇ
  6
CONTINUOUS
 62
    7
 10
2198.9262926831107
 20
2497.3309981417883
 40
4
  0
LINE
  8
_0-3_âh__âÇ
  6
CONTINUOUS
 62
    7
 10
2198.9262926831107
 20
2557.4121363309955
 11
2198.9262926831107
 21
2461.5985685007304
  0
TEXT
  8
_0-3_âh__âÇ
 62
    7
 10
2198.6145657882262
 20
2518.0989523653911
 40
30
 41
1.1764705882352928
 50
90
  1
10
  0
TEXT
  8
_f-f_
 62
    7
 10
2198.9262926831107
 20
2461.5985685007304
 40
30
 41
1.1764705882352928
 50
90
  1
5
  0
TEXT
  8
_0-3_âh__âÇ
 62
    7
 10
135.06998399051781
 20
2075.0391906145296
 40
24.253472222222214
 41
1.1764705882352942
 50
0
  1
üªâXâNâGâAâXâ^ü[â^ü[âLâbâgé╔è▄é▄éÛéÚ
  0
ENDSEC
  0
EOF
